El Sol No Regresa, La 5a. Estación (bajo)

Autor: Anónimo | 34270 visualizaciones

olas aqui les dejo
el pab para bajo
tmb encontraran mi tab para guitarra
para 1º y 2º
esta re facil

bueno esta ba pa toa la gente d tacna-peru
del grupo k`librado si quieren ubicarnos aqui les dejo muestro msn

ALEXIS ed( 1ºguitarra )     alexemp@hotmai.com
elard (bajo)                elard_19_1@hotmail.com
kevin ( 2º guitarra )       ortiz90@.....
tamos buscando vocalista
hombre o mujer.....disfruten

en el intro con trompeta no entra
en tra a la mitad maso
d la guitarra:
Intro: 0:22
       G#   A#   D#
G ------------------------------------------
D -----6-66---------------------------------
A ---------------6-66-6-66------------------x2
E ----------6-66----------------------------

estrofa:    0:37
   D#        G#        A#   G#   D#
G ---------------------------------------------
D -----------6-66-6-66------6-66---------------
A -6-66-6-66---------------------6-66-6-66-----x2
E ---------------------6-66--------------------

coro:   1:07
   G#   A#   D#   Cm   G#   A#   D#
G -1-11----------------------------------------
D -----------1-11------6-66--------------------
A ------1-11------3-33-----------6-66-6-66-----x2
E --------------------------6-66---------------

veenn

ta refacil
luegoi repiten:

-estrofa  1:37
-coro     2:07

luego en el punteo :  2:37
   G#   A#   D#   Cm   G#   A#
G -1-11----------------------------------------
D -----------1-11------6-66--------------------
A ------1-11------3-33-------------------------
E --------------------------6-66---------------

luego:

-coro:  2:50

luego:  3:20
   G#   A#
G -1-------------------------------------------
D ---------------------------------------------
A ------1--------------------------------------
E ---------------------------------------------

   3:28
   G#   A#   D#   Cm   G#   A#   D#   G# D#
G -1-11----------------------------------------
D -----------1-11------6-66-----------6--------
A ------1-11------3-33-----------6-66----6-----
E --------------------------6-66---------------
Calificar esta versión:
Aviso: Este fichero es trabajo propio de su transcriptor y representa su interpretación personal de la canción. El material contenido en esta página es para exclusivo uso privado, por lo que se prohibe su reproducción o retransmisión, así como su uso para fines comerciales.