El Sol No Regresa, La 5a. Estacion (acordes) (ver 4)

Autor: ducks911 | 28229 visualizaciones

asoscmdsosgsos
INTRO:
E --15-15-15-13-11-11----15-15-15-13-11-8---
B ------------------------------------------
G ------------------------------------------
D ------------------------------------------
A ------------------------------------------
E ------------------------------------------

E --8-8-8--10-11-10-8-8-6-6-----------------
B ------------------------------------------
G ------------------------------------------
D ------------------------------------------
A ------------------------------------------
E ------------------------------------------

aqui entra la guitarra..:D
      0:20
E ---/8-8-8-6-4-4---4/8-8-6-6-6-8-6-4-4-3---
B ------------------------------------------
G ---/8-8-8-7-5-5---5/8-8-7-7-7-8-7-5-5-3---
D ------------------------------------------
A ------------------------------------------
E ------------------------------------------




0:28 E -3-3-3-4-6-6-----4-4-3-1-1-1h-------------- B -------------4-4--------------4-3-4-4S6-4-- G ------------------------------------------- D ------------------------------------------- A ------------------------------------------- E ------------------------------------------- D# G# Hace días perdí en alguna cantina A# G# D# la mitad de mi alma, más el 15 de propina D# G# no es que sea el alcohol, la mejor medicina A# G# D# pero ayuda a olvidar, cuando no ves la salida. G# Hoy te intento contar A# D# Cm que todo va bien aunque no te lo creas G# aunque a estas alturas A# D# un último esfuerzo no valga la pena. G# Hoy los buenos recuerdos A# D# Cm se caen por las escaleras G# y tras varios tequilas A# las nubes se van D# pero el sol no regresa. D# G# Sueños de habitación frente un hotel de carretera A# G# D# y unas gotas de lluvia que guardo en esta maleta D# G# ruedan por el colchón de mi cama ya desierta A# G# D# es la mejor solución para el dolor de cabeza. G# Hoy te intento contar A# D# Cm que todo va bien aunque no te lo creas G# aunque a estas alturas A# D# un último esfuerzo no valga la pena. G# Hoy los buenos recuerdos A# D# Cm se caen por las escaleras G# y tras varios tequilas A# las nubes se van D# pero el sol no regresa. SOLO: [-----5x------] ||-/8v-6---6h8---6-----------|------11-11--| ||-------9---------8-6-------|11h13--------| ||---------------------8-5---|-------------| ||-------------------------8-|-------------| ||---------------------------|-------------| ||---------------------------|-------------| |-11-10h11p10----------------------------------------------------------------|| |-------------13-11-13-11----------------------------------------------------|| |-------------------------12-10-12-10----------------------8----10-^r-8-10^--|| |-------------------------------------13-12-13-12-10-8--10---10--------------|| |----------------------------------------------------------------------------|| |----------------------------------------------------------------------------|| G# Hoy te intento contar A# D# Cm que todo va bien aunque no te lo creas G# aunque a estas alturas A# D# un último esfuerzo no valga la pena. G# Hoy los buenos recuerdos A# D# Cm se caen por las escaleras G# y tras varios tequilas A# las nubes se van D# pero el sol no regresa. G# y tras varios tequilas A# las nubes se van D# pero el sol no regresa.

Comentarios del colaborador: pues miren, aqui les dejo esta cancion, pues algunos pedasos los saque de lacuerda.net, em espero que les guste estaa bien,, suerte..(yn) agregenn y digann comentarios porfas..sergito_guapo10@hotmail.com saludoos y mucha suerte

Calificar esta versión:
Aviso: Este fichero es trabajo propio de su transcriptor y representa su interpretación personal de la canción. El material contenido en esta página es para exclusivo uso privado, por lo que se prohibe su reproducción o retransmisión, así como su uso para fines comerciales.