Chica Del Suburbano, La 25 (tablatura) (ver 2)

Autor: Anónimo | 20352 visualizaciones

SOLO


e|-s12-12-12-12-12-12-12--15--15---15-15-15-15-----------------
B|-s12-12-12-12-12-12-12--14b-14b--14-14-14-14ba-12-14-12------
G|--------------------------------------------------14-12h13---
D|-----------------------------------------------------------14
A|-------------------------------------------------------------
E|-------------------------------------------------------------


e|--------------------------------------------------------------
B|------------------------12------------------------------------
G|-12-14ba-p12----12--s13----14-12b-----------------------------
D|-------------14-------------------14-12-----------------------
A|-----------------------------------------14-12-----------12-14
E|-----------------------------------------------15-12--15------


e|-----------------------------15vv----------------------------
B|-----------------------12h15----------12-12b-----------------
G|----12-14ba-p12----12-----------------12-12b----12-14ba-p12--
D|-14-------------14-----------------14--------14--------------
A|-------------------------------------------------------------
E|-------------------------------------------------------------


e|-------------------------------------------------------------
B|-------------12-12----12----12-14ba-p12----12-----12-14b-----
G|----12---s13-------13----13-------------13-----13------------
D|-14----------------------------------------------------------
A|-------------------------------------------------------------
E|-------------------------------------------------------------


e|-12-14b--12-17b--17-15-16-----15p14p12----------------12-----
B|--------------------------17-----------15p14p12-------12-----
G|------------------------------------------------14p12--------
D|-------------------------------------------------------------
A|-------------------------------------------------------------
E|-------------------------------------------------------------
Calificar esta versión:
Aviso: Este fichero es trabajo propio de su transcriptor y representa su interpretación personal de la canción. El material contenido en esta página es para exclusivo uso privado, por lo que se prohibe su reproducción o retransmisión, así como su uso para fines comerciales.
Más versiones de Chica Del Suburbano, La 25
Chica Del Suburbano
acordes
Chica Del Suburbano
tablatura
Chica Del Suburbano (ver 2)
tablatura
Descubre más canciones de La 25