Chica Del Suburbano, La 25 (tablatura)

Autor: Anónimo | 27509 visualizaciones

[INTRO]

e|----------|
B|----------|
G|-7/9-99-9-|
D|-7/9-99-9-|
A|--------7-|
E|----------|

[VERSO1]

  (ƒ)     FRASEO B5       (ƒ)     FRASEO E5
e|---|-------------------|---|-------------------|--||
B|---|-------------------|---|-------------------|--||
G|-ƒ-|-------------------|-ƒ-|-------------------|x2||
D|---|-------------------|---|-9-9-11-9-9-9-11-9-|--||
A|---|-9-9-11-9-9-9-11-9-|---|-7-7-9--7-7-7-9--7-|--||
E|---|-7-7-7--7-7-7-7--7-|---|-------------------|--||


                        Fraseo B5
Como en un cuento de amor
               Fraseo E5
todo como comenzó
                 Fraseo B5
y en mi cabeza quedó
                  Fraseo E5
Chica del suburbano

[VERSO2]

  ƒ     FRASEO A5   ƒ     FRASEO E5          FRASEO B5         E5
e|-|---------------|-|-----------------|-----------------|--------||
B|-|---------------|-|-----------------|-----------------|--------||
G|ƒ|---------------|ƒ|-----------------|-----------------|-9--9--9||
D|-|---------------|-|9-9-11-9-9-9-11-9|-----------------|-7--7--7||
A|-|7-7-9-7-7-7-9-7|-|7-7-9--7-7-7-9--7|9-9 11-9-9-9-11-9|-7--7--7||
E|-|5-5-5-5-5-5-5-5|-|-----------------|7-7-7--7-7-7-7--7|--------||





                  Fraseo A5
Terminaremos lo que
                   Fraseo E5
no se si ha comenzado
                   Fraseo B5
solo recuerdo de vos
              E5
nunca te dejaré


[ESTRIBILLO]

Acordes de quintas:

B5  E5  A5
|-| |-| |-|
|-| |-| |-|
|-| |9| |-|
|9| |9| |7|
|9| |7| |7|
|7| |-| |5|


                    B5
Y el rocanrol por ahí
                   E5
sigue y seguirá sonando
                  B5
entre acordes y letras de amor
                 E5
siempre te llevaré

                   A5
Te encontraré por ahí
                  E5
Chica del suburbano
                    B5
lo que recuerdo de vos
                E5
nunca lo olvidaré


[SOLO]

[VERSO1]

Azules jeans entorchados
piernas culo y cintura
atuendo artesanal
pegado a su figura

[VERSO2]

Un faso entre los labios
sus ojos desangran
se que andaras siempre así
vagando por el barrio

[ESTRIBILLO]

Y el rocanrol por ahí
sigue y seguirá sonando
entre acordes y letras de amor
siempre te llevaré

Nunca te pude encontrar
Chica del suburbano
lo que recuerdo de vos
nunca nunca lo olvidaré

Y el rocanrol por ahí
sigue y seguirá sonando
entre acordes y letras de amor
siempre te llevaré

Te encontraré por ahí
Chica del suburbano
lo que recuerdo de vos
nunca lo olvidaré

[FINAL]

e|-------------------|
B|-----------------7-|
G|------9---9---9--9-|
D|-9-11--11--11----9-|
A|-----------------7-|
E|-------------------|
Calificar esta versión:
Aviso: Este fichero es trabajo propio de su transcriptor y representa su interpretación personal de la canción. El material contenido en esta página es para exclusivo uso privado, por lo que se prohibe su reproducción o retransmisión, así como su uso para fines comerciales.
Más versiones de Chica Del Suburbano, La 25
Chica Del Suburbano
acordes
Chica Del Suburbano
tablatura
Chica Del Suburbano (ver 2)
tablatura
Descubre más canciones de La 25