No Me Quiero Enamorar, Kalimba (tablatura) (ver 3)

Autor: Anónimo | 35876 visualizaciones



intro
   D     Em      G   A      D   Em      G
E--------------------------------------------
A--------------------------------------------
D--------------------------------------------
G------------------------3h4-3---------------
B--3-3p5-3-3p5-3-3p5-----------3-3p5-3-3p5-3-
e--------------------3-p2--------------------


D        Em        G
Yo no quería quererte
 D       Em      G
y no lo pude evitar
 D      Em       G
creí poder defenderme
               Em               A
pero a mi corazón no lo puedes atar

 D                               Em
Y yo no se mi amor que hago buscandote
 G                      A
si te gano pierdo libertad
 D                               Em
y yo no se mi amor que hago besandote
  G            A          D
si yo no me quiero enamorar

RIFF

E--------------------------------------------
A--------------------------------------------
D--------------------------------------------
G--------------------------2-h4--------------
B--3-p5-----------5-----3-------3p5-3--------
e-------2p-5h7-5---3p2-----------------------


 D           Em           G
Guarda en silencio mis besos
 D     Em         G
despidete sin voltear
 D            Em         G
porque al besarte me pierdo
               Em                     A
pero a mi corazón quien le puede explicar

  D                              Em
y yo no se mi amor que hago buscandote
 G                      A
si te gano pierdo libertad
 D                              Em
y yo no se mi amor que hago besandote
 G             A         D
si yo no me quiero enamorar

 D                              Em
y yo no se mi amor que hago buscandote
 G                      A
si te gano pierdo libertad
 D                              Em
y yo no se mi amor que hago besandote
 G             A         D
si yo no me quiero enamorar





Calificar esta versión:
Aviso: Este fichero es trabajo propio de su transcriptor y representa su interpretación personal de la canción. El material contenido en esta página es para exclusivo uso privado, por lo que se prohibe su reproducción o retransmisión, así como su uso para fines comerciales.
Más versiones de No Me Quiero Enamorar, Kalimba
No Me Quiero Enamorar
acordes
No Me Quiero Enamorar (ver 2)
acordes
No Me Quiero Enamorar (ver 3)
acordes
No Me Quiero Enamorar
tablatura
No Me Quiero Enamorar (ver 2)
tablatura
No Me Quiero Enamorar (ver 3)
tablatura
Descubre más canciones de Kalimba