No Me Quiero Enamorar, Kalimba (tablatura) (ver 2)

Autor: Anónimo | 29887 visualizaciones



Intro:

  Guitar 1
1 ----------5-----------------3----------------2---------------------
2 --------3-----------------3----------------3-----------------------
3 ------2-----------------2----------------2-------------------------
4 ----0-----------------0----------------0---------------------------
5 -------------------------------------------------------------------
6 -------------------------------------------------------------------

  Guitar 2
1 -----------------------------------------------------3p2-----------
2 --3-------------3h5p3-----------3h5p3-----------3h5-----3----------
3 -------------2----------------2----------------2---------2h4--2----
4 -------------------------------------------------------------------
5 -------------------------------------------------------------------
6 -------------------------------------------------------------------

 Guitar 1
1 ----------5----------------3-------------
2 --------3----------------3---------------
3 ------2----------------2-----------------
4 ----0----------------0-------------------
5 -----------------------------------------
6 -----------------------------------------

  Guitar 2
1 -----------------------------------------
2 -------------3h5p3-------------3h5-------
3 -----------2-----------------2----2h4-4--
4 -----------------------------------------
5 -----------------------------------------
6 -----------------------------------------


  Guitar 1
1 ---------0-----------------0---------------------------------------
2 ----3------3----------3------3-------------3-----------------------
3 -------2-----------------2------------0------0---------------------
4 ----0-----------------2------------------0-------------------------
5 -------------------------------------------------------------------
6 --------------------------------------3----------------------------
      Yo   no          queria         quererte

  Guitar 1
1 ---------0-----------------0---------------------------------------
2 ----3------3----------3------3----------3--------------------------
3 -------2-----------------2---------0------0------------------------
4 ----0-----------------2---------------0----------------------------
5 -------------------------------------------------------------------
6 -----------------------------------3-------------------------------
      Y no lo         pude      evitar

  Guitar 1
1 ---------0-----------------0---------------------------------------
2 ----3------3----------3------3----------3--------------------------
3 -------2-----------------2---------0------0------------------------
4 ----0-----------------2---------------0----------------------------
5 -------------------------------------------------------------------
6-----------------------------------3-------------------------------
     Crei po-         der   defenderme


 NOTA: LA guitarra 1 toca los acordes

               Em               A
pero a mi corazón no lo puedes atar

 D                               Em
Y yo no se mi amor que hago buscandote
  Guitar 2
1 --------------------------2-3h5--2h3--------------------------------
2 --------------------------------------3-3h5------------------------
3 -------------------------------------------------------------------
4 -------------------------------------------------------------------
5 -------------------------------------------------------------------
6 -------------------------------------------------------------------

 G                      A
si te gano pierdo libertad
 D                               Em
y yo no se mi amor que hago besandote

  G            A           D
si yo no me quiero  enamorar

  Guitar 2
1 -----------------------------2-3-5/7-5---3-2-----------------------
2 -------------------------3-5-----------3-----3-------------3h5p3---
3 -------------------------------------------------------2-----------
4 -------------------------------------------------------------------
5 -------------------------------------------------------------------
6 -------------------------------------------------------------------


Guitar 1
1 ----------0-------------------------------------------------------
2 --------3---------------0-------------------3---------------------
3 ------2---------------0-------------------0-----------------------
4 ----0---------------2-------------------0-------------------------
5 ------------------2-----------------------------------------------
6 -------------------------------------3----------------------------
                 Guardo el silencio en mis besos

 Guitar 2
1 --------------------------------------------------------------------
2 ---------------------------------------------------0-1h3p1-0--------
3 -------------------------------------------------2-----------2------
4 ---------------------------------------------------------------0----
5 --------------------------------------------------------------------
6 --------------------------------------------------------------------

Guitar 1
1 ----------0-------------------------------------------------------
2 --------3---------------0-------------------3---------------------
3 ------2---------------0-------------------0-----------------------
4 ----0---------------2-------------------0-------------------------
5 ------------------2-----------------------------------------------
6 -------------------------------------3----------------------------
                                      Despidete sin vooolteaar




Guitar 2
1 --------------------------------------------------------------------
2 --------------------------------------------------------------0--3--
3 -----------------------------------------------------------2--------
4 -------------------------------------------------------0------------
5 --------------------------------------------------------------------
6 --------------------------------------------------------------------

Guitar 1
1 ----------0-------------------------------------------------------
2 --------3---------------0-------------------3---------------------
3 ------2---------------0-------------------0-----------------------
4 ----0---------------2-------------------0-------------------------
5 ------------------2-----------------------------------------------
6 -------------------------------------3----------------------------
                 Porque al besarte me pierdo


               Em                     A
pero a mi corazón quien le puede explicar

Guitar 2
1 ---------------3-5-5-------------------
2 ---------------------------------------
3 ---------------------------------------
4 ---------------------------------------
5 ---------------------------------------
6 ---------------------------------------



  D                              Em
y yo no se mi amor que hago buscandote
 G                      A
si te gano pierdo libertad
 D                              Em
y yo no se mi amor que hago besandote
  Guitar 2
1 --------------------------2-3h5-2h3--------------------------------
2 ------------------------------------3-3h5--------------------------
3 -------------------------------------------------------------------
4 -------------------------------------------------------------------
5 -------------------------------------------------------------------
6 -------------------------------------------------------------------


 G             A         D
si yo no me quiero enamorar


D                              Em
y yo no se mi amor que hago buscandote
  Guitar 2
1 --------------------------2-3h5-2h3--------------------------------
2 ------------------------------------3-3h5--------------------------
3 -------------------------------------------------------------------
4 -------------------------------------------------------------------
5 -------------------------------------------------------------------
6 -------------------------------------------------------------------



 G                      A
si te gano pierdo libertad
 D                              Em
y yo no se mi amor que hago besandote
 G             A         D
si yo no me quiero enamorar

  Guitar 2
1 -----------------------------------------------------------
2 --------------------------3-----3h5p3-----3-------3h5-3----
3 ------------------------2-----2---------2-------2-----2----
4 ----------------------0---------------0---------------0----
5 -----------------------------------------------------------
6 -----------------------------------------------------------

Si yo no me quiero enamorar.


JAJA ALGUNOS ERRORES . pero de ahí en fuera esta bien :)
Espero que les guste..





Calificar esta versión:
Aviso: Este fichero es trabajo propio de su transcriptor y representa su interpretación personal de la canción. El material contenido en esta página es para exclusivo uso privado, por lo que se prohibe su reproducción o retransmisión, así como su uso para fines comerciales.
Más versiones de No Me Quiero Enamorar, Kalimba
No Me Quiero Enamorar
acordes
No Me Quiero Enamorar (ver 2)
acordes
No Me Quiero Enamorar (ver 3)
acordes
No Me Quiero Enamorar
tablatura
No Me Quiero Enamorar (ver 2)
tablatura
No Me Quiero Enamorar (ver 3)
tablatura
Descubre más canciones de Kalimba