No Me Quiero Enamorar, Kalimba (tablatura)

Autor: Anónimo | 17266 visualizaciones



esta es mi primera transcripcion espero que les guste de esta 
hermosa rola 

Intro:
1--------------------------------------------------------
2--------------------------------------------------------
3--7/9-7----7/9-7---7/9-12-11-7-2/4-2-7/9-7---7/9-7-2-2/4
4-7-----7-9------7-9-----------------7-----7-9-----------
5--------------------------------------------------------
6--------------------------------------------------------

Punteo1
1----------------------
2----------------------
3-11-12-12/14-12-9/11-7
4----------------------
5----------------------
6----------------------


D     Em       A
Yo no queria quererte
D     Em      A
y no lo pude evitar
D     Em      A
crei poder defenderme
A         G       Bm             A
Pero a mi corazon no lo puedes atar

Coro 
D                              Em
Y yo no se mi amor que hago buscandote Punteo1
Bm         G          A      
si te gano pierdo libertad
D                             Em
Y yo no se mi amor que hago besandote
G           A         D
si yo no me quiero enamorar
D          Em             A
Guarde el silencio en mis brazos
D        Em       A
despidete sin voltear

A         G       Bm             A
Pero a mi corazon no lo puedes atar

Coro 3veces y final 

Nota cuando vaya el ultimo me quiero enamorar se toca esto
lento
1---------------
2---------------
3--7/9-7---7/9-7
4-7-----7-9-----
5---------------
6---------------
G           A        D
Si yo no me quiero enamorar

Si hay errores o falta haganmelo saber pera corregirlo gracias 
aqui esta mi correo en caso de dudas Adrian_Bautista@hotmail.com





Calificar esta versión:
Aviso: Este fichero es trabajo propio de su transcriptor y representa su interpretación personal de la canción. El material contenido en esta página es para exclusivo uso privado, por lo que se prohibe su reproducción o retransmisión, así como su uso para fines comerciales.
Más versiones de No Me Quiero Enamorar, Kalimba
No Me Quiero Enamorar
acordes
No Me Quiero Enamorar (ver 2)
acordes
No Me Quiero Enamorar (ver 3)
acordes
No Me Quiero Enamorar
tablatura
No Me Quiero Enamorar (ver 2)
tablatura
No Me Quiero Enamorar (ver 3)
tablatura
Descubre más canciones de Kalimba