Demonizer, Judas Priest (tablatura) (ver 3)

Autor: JAOT | 16892 visualizaciones

e|---------------------------|
B|---------------------------|
G|---------------------------|
D|------------------------6--|
A|-------6-5---6-5---5-------|
E|-0---0-----------0---0-----|

e|-----------------------------------|
B|-----------------------------------|
G|-----------------------------------|
D|-----------------------------------|
A|---------7---------------7---------|
E|-0-6-3-0---6-0-6-3-0-5-0---3-2-0---|

Verse
e|--------------------|--------------------|
B|--------------------|--------------------|
G|-7-----7-----7-5-8--|-7-----7-----7-8-5--|
D|-7-----7-----7-5-8--|-7-----7-----7-8-5--|
A|-5-----5------------|-5-----5-----5-6-3--|
E|---0-0---0-0--------|---0-0---0-0--------|
 |                                         |
e|--------------------|--------------------|
B|--------------------|--------------------|
G|-7-----7-----7-5-8--|-5-----5-----5-7-8--|
D|-7-----7-----7-5-8--|-5-----5-----5-7-8--|
A|-5-----5-----5-3-6--|-3-3-3-3-3-3-3-5-6--|
E|---0-0---0-0--------|--------------------|

e|--------------------------------|
B|--------------------------------|
G|--------------------------------|
D|--------------------------------|
A|-------3---------5---------3----|
E|-0-0-0-3---0-0-0-5---0-0-0-3----|

e|---------------------|--------------------|
B|---------------------|--------------------|
G|---------------------|--------------------|
D|-7-----7-----7-5-8---|-7-----7-----7-8-5--|
A|-7-----7-----7-5-8---|-7-----7-----7-8-5--|
E|-7-7-7-7-7-7-7-5-8---|-7-7-7-7-7-7-7-8-5--|
 |                                          |
e|---------------------|--------------|
B|---------------------|--------------|
G|---------------------|--------------|
D|-5-----5-----5-8-5-7-|-------------3~|
A|-5-----5-----5-8-5-7-|--------------|
E|-5-5-5-5-5-5-5-8-5-7-|-0-2-3-0-2-3--|

Chorus
En esta parte no estoy seguro de cual Riff es el correcto, tu elige el que mas te parezca.

Riff del coro #1
e|-----------------------------------|
B|-----------------------------------|
G|-----------------------------------|
D|-----------------------------------|
A|-------------3---------------5-----|
E|-0-0-0-0-0-0-3---0-0-0-0-0-0-5-----|
 |                                   |
e|-----------------------------------|
B|-----------------------------------|
G|-----------------------------------|
D|-----------------------------------|
A|-------------3-------6--3-2-1------|
E|-0-0-0-0-0-0-3---0-0-6--3-2-1------|

Riff del coro #2
e|---------------------------------|
B|---------------------------------|
G|-------------10---------------12-|
D|-------------10---------------12-|
A|-------------8----------------10-|
E|-0-0-0-0-0-0------0-0-0-0-0-0----|
 |                                 |
e|---------------------------------|
B|---------------------------------|
G|-------------10------------------|
D|-------------10------------------|
A|-------------8--------6--3-2-1---|
E|-0-0-0-0-0-0------0-0-6--3-2-1---|

e|------------------------------------------|
B|------------------------------------------|
G|------------------------------------------|
D|-----------------------6------------------|
A|-------6-5---6-5---5---------6-5-----6-321|
E|-0---0-----------0---0---0-0-----0-0-6-321|

Y esto para terminar 
e|-------------------------------------------|
B|-------------------------------------------|
G|-------------------------------------------|
D|-------------------------------------------|
A|-3-2-1---3-2-1---3-2-1---3-2-1---3-2-1-----|
Calificar esta versión:
Aviso: Este fichero es trabajo propio de su transcriptor y representa su interpretación personal de la canción. El material contenido en esta página es para exclusivo uso privado, por lo que se prohibe su reproducción o retransmisión, así como su uso para fines comerciales.
Más versiones de Demonizer, Judas Priest
Demonizer
tablatura
Demonizer (ver 2)
tablatura
Demonizer (ver 3)
tablatura
Descubre más canciones de Judas Priest