Demonizer, Judas Priest (tablatura) (ver 2)

Autor: [anoni]Lexa[anoni] | 22151 visualizaciones

Demonizer de judas priest la canción numero 5 del album angel of retribution del año 2005.

e|-------------------------|-----------------
B|-------------------------|-----------------
G|-------------------------|-----------------
D|-----------------------6-|-----------------
A|-------5--6--6-5---5-----|-------6--5--6-5-
E|-0--0------------0---0---|-0--0------------

e|--------------|
B|--------------|
G|--------------|
D|---------6----|
A|----5---------|
E|-0-----0------|

e|-----------------------------------|
B|-----------------------------------|
G|-----------------------------------|
D|-----------------------------------|
A|---------7---------------7---------|
E|-0-6-3-0---6-0-6-3-0-5-0---3-2-0---|

e|--------------------|----------------------|
B|--------------------|----------------------|
G|-7-----7-----7-5-8--|-7-----7-----7-8-5----|
D|-7-----7-----7-5-8--|-7-----7-----7-8-5----|
A|-5-----5------------|-5-----5-----5-6-3----|
E|---0-0---0-0--------|---0-0---0-0----------|

e|--------------------|---------------------|
B|--------------------|---------------------|
G|-7-----7-----7-5-8--|-5-----5-----5-7-8---|
D|-7-----7-----7-5-8--|-5-----5-----5-7-8---|
A|-5-----5-----5------|-3-3-3-3-3-3-3-5-6---|
E|---0-0---0-0--------|---------------------|
Verso 1

e|---------------------------|
B|---------------------------|
G|---------------------------|
D|---------------------------|
A|-------3--------5--------3-|
E|-0-0-0-3--0-0-0-5--0-0-0-3-|

e|------------------------------|
B|------------------------------|
G|------------------------------|
D|-5---8-7-5---8-7-5-----7-8-7--|
A|-5---8-7-5---8-7-5-----7-8-7--|
E|-5---8-7-5---8-7-5-----7-8-7--|

e|--------------|
B|--------------|
G|--------------|
D|-----------3~-|
A|--------------|
E|-0-2-3-0-2----|

e|--------------------------------------------
B|--------------------------------------------
G|--------------------------------------------
D|--------------------------------------------
A|-------------3-------------5-------------3--
E|-0-0-0-0-0-0-3-0-0-0-0-0-0-5-0-0-0-0-0-0-3--

e|-----------------|
B|-----------------|
G|-----------------|
D|-----------------|
A|-----6--3-2-1----|
E|-0-0-6--3-2-1----|

e|---------------------------|
B|---------------------------|
G|---------------------------|
D|---------------------------|
A|-------6--5------6--3-2-1--|
E|-0--0--------0-0-6--3-2-1--|

e|----------------------------|
B|----------------------------|
G|----------------------------|
A|-3-2-1-----3-2-1-----3-2-0--|
E|-3-2-1-----3-2-1-----3-2-0--|

Por LEXA
Urequio mich.
Viva el heavy metal... Yeah

Comentarios del colaborador: -

Calificar esta versión:
Aviso: Este fichero es trabajo propio de su transcriptor y representa su interpretación personal de la canción. El material contenido en esta página es para exclusivo uso privado, por lo que se prohibe su reproducción o retransmisión, así como su uso para fines comerciales.
Más versiones de Demonizer, Judas Priest
Demonizer
tablatura
Demonizer (ver 2)
tablatura
Demonizer (ver 3)
tablatura
Descubre más canciones de Judas Priest