Demonizer, Judas Priest (tablatura)

Autor: [anoni]Jose alejandro LEXA[anoni] | 34205 visualizaciones

Demonizer del album ángel of retribution de año 2003.

Aquí tenemos el intro que sin duda es 100% correcto.


e|----------------------------------------|
B|----------------------------------------|
G|----------------------------------------|
D|----------------------------------------|x3
A|-0----------1-----0-----1-0---0---6-----|
E|-0--------------------------3---0-------|

 
e|----------------------------------------|
B|----------------------------------------|
G|----------------------------------------|
D|----------------------------------------|x1
A|-0----------1-----0---1-0---0-----6-----|
E|-0------------------------3---3-0-------|


e|-----------------------------------|
B|-----------------------------------|
G|-----------------------------------|
D|-----------------------------------|x4
A|---------7---------------7---------|
E|-0-6-3-0---6-0-6-3-0-5-0---6-3-----|

Lo demás vendrá después.

Comentarios del colaborador: tablatura y transcripción por lexa o.t. de ureq. mich. viva el heavy metal yeah

Calificar esta versión:
Aviso: Este fichero es trabajo propio de su transcriptor y representa su interpretación personal de la canción. El material contenido en esta página es para exclusivo uso privado, por lo que se prohibe su reproducción o retransmisión, así como su uso para fines comerciales.
Más versiones de Demonizer, Judas Priest
Demonizer
tablatura
Demonizer (ver 2)
tablatura
Demonizer (ver 3)
tablatura
Descubre más canciones de Judas Priest