Fijate Bien, Juanes (tablatura) (ver 2)

Autor: Anónimo | 29953 visualizaciones

G5+   x 5 5  7 x x
A5+   x 7 7  9 x x
B5+   x 9 9 11 x x
F5#+  x 4 4  6 x x
A     x x 1  1 1 x
b     2 2 4  4 3 1
E5+   x 2 2  4 x x

  : significa resbala (incluyendo en el punteo)

b 
  Te han quitado lo que tienes
                          A
Te han robado el pan del día
Te han sacado de tus tierras 
                    b
Y no parece que termina aquí.


Despojado de tu casa
Vas sin rumbo en la ciudad
Sos el hijo de la nada
                    G
Sos la vida que se va


Son los niños, son los viejos
                       A
Son las madres, somos todos... Caminando
No te olvides de esto, no, no, no


G5+  A5+  A5+B5+   G5+A5+B5+   G5+  A5+
              Fíjate bien donde pisas
A5+B5+  G5+A5+B5+  G5+ F5#+ A      
  Fíjate cuando caminas
          G5+ F5#+ A      A E5+  F5#+  
No vaya a ser que una mina
  E5+ F5#+
Te desbarate los pies amor.

* este el punteo del medio

|--------------------------------------------------------------
|-0-2-23-3-3-35-5-57-7-7-78-7-7-78-5-5-7-5-5-5-5----------
|----------------------------------------------7-6-7-7-6-7-6-3-
|--------------------------------------------------------------
|--------------------------------------------------------------
|--------------------------------------------------------------

|-0------------------7--------------10-------------------------
|---2-----2-3-5-3-2-3-7-7-10-9-8-7-8-14-13-12-12-11-10-9-7-8-7-
|-----3-3------------------------------------------------------
|--------------------------------------------------------------
|--------------------------------------------------------------
|--------------------------------------------------------------

|-------------------------------------------------|
|---------------------7---7-8-7-8-9-8-9-11-10-9-7-|
|-9-8-7-8-9-8-7-----7---7-------------------------|
|---------------10-9------------------------------|
|-------------------------------------------------|
|-------------------------------------------------|

* este es el punteo del final

h : Alzas la cuerda hasta que alcance el sonido en el traste que 
indica el número en parentesis

|----------------------------------------------------------------
|----------------------------------------------------------------
|-9h(11)-9-11-9-------------------9-11-9-------------------------
|---------------12-11-12-12-9-9-12-------12-11-12-11-------------
|----------------------------------------------------12-7-5-4-0--
|----------------------------------------------------------------

-----------------------------------------------------------------
--------------------------------------------------------12-1517-
---------------------------7-9h(11)-9-7-911-1416-16-16---------
----------------------7-9-9--------------------------------------
-45-5-5-5-7-7-7-9-9-9-------------------------------------------
-----------------------------------------------------------------

-----------------------------------------------------------------
-17-17-17-15-15-15-15-14-14-12-12--------------------------------
----------------------------------14-12-111211----11--------11-
--------------------------------------------------14--14h(15)----
-----------------------------------------------------------------
-----------------------------------------------------------------

-----------------------------------------------------------------
------------------------12-----12-12-----12-12-----12--12-----12-
------------------------15h(16)---15h(16)---15h(16)----15h(16)---
-14h(15)-14h(15)-12--12------------------------------------------
-------------------14--------------------------------------------
-----------------------------------------------------------------

                 (esto de abajo rápido y se repite algunas veces)
-------------------12-10---12-10----|
-12-----12-12-----------12-------12-|
-15h(16)---15h(16)------------------|
------------------------------------|
------------------------------------|
------------------------------------|

Fuente original: LaCuerda
Colaborador original: Ricardo LLugsi [rllugsi@hotmail.com]
Calificar esta versión:
Aviso: Este fichero es trabajo propio de su transcriptor y representa su interpretación personal de la canción. El material contenido en esta página es para exclusivo uso privado, por lo que se prohibe su reproducción o retransmisión, así como su uso para fines comerciales.
Más versiones de Fijate Bien, Juanes
Fijate Bien
acordes
Fijate Bien (ver 2)
acordes
Fijate Bien
tablatura
Fijate Bien (ver 2)
tablatura
Fijate Bien (ver 3)
tablatura
Fijate Bien (ver 4)
tablatura
Fijate Bien (ver 5)
tablatura
Fijate Bien
bajo
Descubre más canciones de Juanes