Fijate Bien, Juanes (tablatura) (ver 5)

Autor: sergio1998 | 37341 visualizaciones

Acordes de la cancion
 Sim     G    FA#m
|-2-|  |-3-|  |-0-|
|-3-|  |-3-|  |-0-|
|-4-|  |-0-|  |-0-|
|-4-|  |-0-|  |-4-|
|-2-|  |-2-|  |-4-|
|---|  |-3-|  |-2-|


Intro
|---x----xx-------x-x----x-----------------------------x----x----x----2--xxxxxx-|
|---x-12-xx-12----x-x-12-x-14--------------------------x-12-x-15-x-7--2--xxxxxx-|
|---x-12-xx-12----x-x-12-x-14-14h12--12----------------x-12-x-15-x-7--2--xxxxxx-|
|---x----xx-------x-x----x---------14----12-12h14/16---x----x----x-------xxxxxx-|
|--------------------------------------14--------------------------------xxxxxx-|
|------------------------------------------------------------------------xxxxxx-|

Coro
|---------------------------------------------------------------------------|    
|---------------------------------------------------------------------------| x2
|-8-10-10/12-8/10-10/12-8-10-10/12-8/10-10/12-8-7-3-8/7-7-3-3-5-5/7-3/5-5/7-|     
|-8-10-10/12-8/10-10/12-8-10-10/12-8/10-10/12-8-7-3-8/7-7-3-3-5-5/7-3/5-5/7-|     
|---------------------------------------------------------------------------|    
|---------------------------------------------------------------------------|   


Verso  

Sim
     Te han quitado lo que tienes 

Te han robado el pan del día

Te han sacado de tus tierras

Y no parece que termina aquí

Despojado de tu casa

Vas sin rumbo a la ciudad

sos el hijo de la nada

sos la vida que se va G

Son los niños son los viejos
                        FA#m
Son las madres somos todos, caminando

Y no te olvides de esto no no no

Coro
|---------------------------------------------------------------------------|    
|---------------------------------------------------------------------------| x2
|-8-10-10/12-8/10-10/12-8-10-10/12-8/10-10/12-8-7-3-8/7-7-3-3-5-5/7-3/5-5/7-|     
|-8-10-10/12-8/10-10/12-8-10-10/12-8/10-10/12-8-7-3-8/7-7-3-3-5-5/7-3/5-5/7-|     
|---------------------------------------------------------------------------|    
|---------------------------------------------------------------------------|   

Verso 2

Sim

    Ya no se quien es el dueño

De tu vida y de la mía

Solo se que hay un cuento

Que no parece que termina aquí

Y como dicen en los diarios

Y como dicen en la tele

Y como dicen en la radio

Que no parece que termina aquí


G

Son los niños son los viejos
                        FA#m
Son las madres somos todos, caminando

Y no te olvides de esto no no no

Coro
|---------------------------------------------------------------------------|    
|---------------------------------------------------------------------------| x2
|-8-10-10/12-8/10-10/12-8-10-10/12-8/10-10/12-8-7-3-8/7-7-3-3-5-5/7-3/5-5/7-|     
|-8-10-10/12-8/10-10/12-8-10-10/12-8/10-10/12-8-7-3-8/7-7-3-3-5-5/7-3/5-5/7-|     
|---------------------------------------------------------------------------|    
|---------------------------------------------------------------------------|   


Solo Acústico
|-----------------------------------------------------------|
|---3-5?5/7-7-7-7---7-7-7--7-7-7-7--------------------------|
|-4--------------------------------9--7-6-9-6-4-7-4-3-6-3---|
|---------------------------------------------------------4-|
|-----------------------------------------------------------|
|-----------------------------------------------------------|

|---------------------------------------------------------------------------------------5-4-3-2-|   
|-2-2-3-5-3-2-3---10-9-7------15-14-12-10-12-10--7-7-7-8-7-5---7-5-------------7-5-3------------|
|--------------4---------9-11-------------------------------7-6---7-6-4-2-6-4-2-----6-4-2-------|
|-----------------------------------------------------------------------------------------------|
|-----------------------------------------------------------------------------------------------|
|-----------------------------------------------------------------------------------------------|



Coro
|---------------------------------------------------------------------------|    
|---------------------------------------------------------------------------| x4
|-8-10-10/12-8/10-10/12-8-10-10/12-8/10-10/12-8-7-3-8/7-7-3-3-5-5/7-3/5-5/7-|     
|-8-10-10/12-8/10-10/12-8-10-10/12-8/10-10/12-8-7-3-8/7-7-3-3-5-5/7-3/5-5/7-|     
|---------------------------------------------------------------------------|    
|---------------------------------------------------------------------------|   

Solo 2 

|-----------------------------------------------------------------------------------------------------------------------------
|----------------------------------------------------------------------------------------------12-15-15b15b15b17-17-1715-15-15
|-9b-9-11-9----------------9-11-9------------------------------------------7-9b9-7-9b-9b/141616-------------------------------
|----------12-11-12-9-11-12------12-11-12-11--------------------------7-999---------------------------------------------------
|-------------------------------------------12-9-7-5-4-0-4-555-777-999--------------------------------------------------------
|-----------------------------------------------------------------------------------------------------------------------------

----------------------------------------------------------------------------1212h10?---12h10---12h10?--12h10----12h10----12h10--|   
14-14-1412-12------------------------------12-12-12-12-12-12-12-12-12-12-12--------1212----1212-----1212----1212-----1212-----12|
-------------14-12-11-11h1212--------------15b?--15b---15b?--15b---15b---15b----------------------------------------------------|
-----------------------------14h12--12-12/0-------------------------------------------------------------------------------------|
----------------------------------14--------------------------------------------------------------------------------------------|
--------------------------------------------------------------------------------------------------------------------------------|
La última parte del solo se repite varias veces


By: Sergio1998
Calificar esta versión:
Aviso: Este fichero es trabajo propio de su transcriptor y representa su interpretación personal de la canción. El material contenido en esta página es para exclusivo uso privado, por lo que se prohibe su reproducción o retransmisión, así como su uso para fines comerciales.
Más versiones de Fijate Bien, Juanes
Fijate Bien
acordes
Fijate Bien (ver 2)
acordes
Fijate Bien
tablatura
Fijate Bien (ver 2)
tablatura
Fijate Bien (ver 3)
tablatura
Fijate Bien (ver 4)
tablatura
Fijate Bien (ver 5)
tablatura
Fijate Bien
bajo
Descubre más canciones de Juanes