Fijate Bien, Juanes (tablatura) (ver 4)

Autor: sergio1998 | 36182 visualizaciones

Solo 2

|----------------------------------------------------------------
|----------------------------------------------------------------
|-9b-9-11-9---------------------9-11-9---------------------------
|---------------12-11-12-9-9-12-------12-11-12-11----------------
|----------------------------------------------------12-7-5-4-0--
|----------------------------------------------------------------

-----------------------------------------------------------------
--------------------------------------------------12-15h17-------
----------------------7-9b-9-7-9h11-141h6-16-16------------------
----------------7-9-9--------------------------------------------
-45-5-5-7-7-9-9--------------------------------------------------
-----------------------------------------------------------------

-----------------------------------------------------------------
-17-17-17-15-15-15-15-14-14-12-12--------------------------------
----------------------------------14-12-11h12h11--------11-------
--------------------------------------------------14?14b---------
-----------------------------------------------------------------
-----------------------------------------------------------------

-----------------------------------------------------------------
------------------------12-----12-12-----12-12-----12--12-----12-
------------------------15h(16)---15h(16)---15h(16)----15h(16)---
-14h(15)-14h(15)-12--12------------------------------------------
-------------------14--------------------------------------------
-----------------------------------------------------------------

------------------12121212h10----1212h10----1212h10----1212h10----1212h10----|
-12-----12-12-----------------1212-------1212-------1212-------1212------1212|
-15h(16)---15h(16)-----------------------------------------------------------|
-----------------------------------------------------------------------------|
-----------------------------------------------------------------------------|
-----------------------------------------------------------------------------|
Calificar esta versión:
Aviso: Este fichero es trabajo propio de su transcriptor y representa su interpretación personal de la canción. El material contenido en esta página es para exclusivo uso privado, por lo que se prohibe su reproducción o retransmisión, así como su uso para fines comerciales.
Más versiones de Fijate Bien, Juanes
Fijate Bien
acordes
Fijate Bien (ver 2)
acordes
Fijate Bien
tablatura
Fijate Bien (ver 2)
tablatura
Fijate Bien (ver 3)
tablatura
Fijate Bien (ver 4)
tablatura
Fijate Bien (ver 5)
tablatura
Fijate Bien
bajo
Descubre más canciones de Juanes