Descontrolado, Jovenes Pordioseros (tablatura)

Autor: Solounpoco | 23322 visualizaciones

Como no estaba, :D...CALIFIQUENNN  :D:D:D:D

Estas son las cosas que tienen que tener en cuenta:

s: Significa que tiene que deslisar (esto se utiliza mucho)
~: Significa que tienen que hacer bibrar la cuerda


1)---------------------------------------------------------------
2)---------------------------------------------------------------
3)---------------------------------9v-7-6--7-6-------------------
4)----------7-9s11-7~---9-7-9-7---7-----------9-7---9s11-9-------
5)-------7-9----------------------------------------------12-11--
6)---9-10--------------------------------------------------------

1)------------------------------------------------
2)------------------------------------------------
3)-------------------------------------------6----
4)-11------7----7s6----------7s6----------7-9-7---
5)-9--9-7--5-------7-5-7-7------7------7s9--------
6)---------------------------------9s10-----------

1)-------------------------------------------------------
2)-------------------------------------------------------
3)-------------------------------------------------------
4)--7-9-11-12-12s14-12-12s11-12s11--11s9-9s7-7s6-7s6-----
5)--------------------------------------------------9-7--
6)-------------------------------------------------------

1)-------------------------------------------------------
2)-----10-10s12-12-12v-12v--14s12-12-12s10-10-10~--------
3)--7s9--9-----------------------------------------------
4)-------------------------------------------------------
5)-------------------------------------------------------
6)-------------------------------------------------------

1)-------------------------------------------------------
2)--10-10s9-9-9-9s7-7-7-7s5-5s7-7s9-9s5~-----------------
3)-------------------------------------------------------
4)-------------------------------------------------------
5)-------------------------------------------------------
6)-------------------------------------------------------

Comentarios del colaborador: WWW.LACUERDA.NET

Calificar esta versión:
Aviso: Este fichero es trabajo propio de su transcriptor y representa su interpretación personal de la canción. El material contenido en esta página es para exclusivo uso privado, por lo que se prohibe su reproducción o retransmisión, así como su uso para fines comerciales.
Más versiones de Descontrolado, Jovenes Pordioseros
Descontrolado
acordes
Descontrolado (ver 2)
acordes
Descontrolado (ver 3)
acordes
Descontrolado (ver 4)
acordes
Descontrolado
tablatura
Descontrolado
bajo
Descubre más canciones de Jovenes Pordioseros