Descontrolado, Jovenes Pordioseros (acordes) (ver 2)

Autor: exekiel08 | 38100 visualizaciones

fasosmlalasus4mire
             La + Riff1              Lasus4
No me arrepiento                     Riff1           Riff2
                      Mi          e|-3-3-3-[2]-|---4--4--5--7--5---|
De haber venido hasta aca         B|-2-2-2-[2]-|--5----5--5--5--5--|
                      Fa#m Re     G|-2-2-2-[2]-|-4------4--4--4--4-|
De haber viajado una hora         D|-0-0-0-[0]-|-------------------|
                 Mi + Riff2       A|-----------|-------------------|
Para volverte a ver               E|-----------|-------------------|
            La 
Y si estoy solo
                  Mi 
Voy escuchando tu voz
                    Fa#m Re
Puedo dejar muchas cosas
                Mi 
Para volverte a ver
                                                     Riff3
                                                  e|-------------|
Re         Mi                                     B|-------------|
Y cuando llega la noche                           G|-------------|
La           Fa#m [riff3]                         D|--4-2----+---|
Me late el corazòn                                A|------4-2-[5]|
Re                     La  Mi                     E|-2-----------|
Y cuando llega esa noche


       La                     Mi 
Y te quiero no me preguntes porque
                   Fa#m Re
Puedo dejar muchas cosas
                 Mi 
Para volverte a ver
       La                        Mi 
Descontrolado yo no te quiero perder
                     Fa#m Re
No me conformo con verte
                   Mi 
Solo una vez al mes


Re         Mi 
Y cuando llega la noche
La           Fa#m[riff3]
Me late el corazòn
Re                     La  Mi 
Y cuando llega esa noche

Rock and roll!


Solo de guitarrra: [La-Mi-Fa#m-Re-Mi] x2

                 La                      Mi                         Fa#m     Re             Mi 
e|------------------|------------|---------------------|-----------------|-------|------------|------------|
B|-------------2----|------------|---------------------|-----------------|-------|------------|------------|
G|---------2-4---2~-|-4p2-4p2-2~-|-2-4/11-9-7-6-7-4-2~-|-6-4---------[6]-|-4-[2]-|------------|------------|
D|-----2-4----------|------------|---------------------|------7-6-0--[4]-|-2-[0]-|-7h6--------|-----7p6----|
A|-4-5--------------|------------|---------------------|-----------------|-------|------7-5-7-|-777-----7~-|
E|------------------|------------|---------------------|-----------------|-------|------------|------------|
                                                                                              PM...
                   La                          Mi                                   Fa#m                    Re
e|--------------------|----------------------------------------|--------------------------|------------------------|
B|-------------2------|------2-3/5-3-2h3p2-2p0-----------------|----10---10---10--12b-12b-|-12p10----12brbr-10-10v-|
G|---------2-4---2-2~-|--2-4-------------------4p2--2/1/2------|-/9----9----9-------------|-------11---------------|
D|-----2-4------------|------------------------------------4-2-|--------------------------|------------------------|
A|-4-5----------------|----------------------------------------|--------------------------|------------------------|
E|--------------------|----------------------------------------|--------------------------|------------------------|

   Mi                                Re
e|--------------------------------------|
B|-10-10/9-9-9-9/7-7-7-5/7-7/9-9/5--5~~-|
G|--------------------------------------|
D|--------------------------------------|
A|--------------------------------------|
E|--------------------------------------|

Re         Mi 
Y cuando llega la noche
La           Fa#m[riff3]
Me late el corazòn
Re                     La  Mi 
Y cuando llega esa noche


            La 
No me arrepiento
                      Mi 
De haber venido hasta aca
                      Fa#m Re
De haber viajado una hora
                Mi 
Para volverte a ver
           La 
Yo no te miento
                   Mi 
Siempre dije la verdad
                     Fa#m Re
Pueden pasarme mil cosas
               Mi 
Pero yo sigo igual

Re         Mi 
Y cuando llega la noche
La           Fa#m
Me late el corazòn
Re                     La  Mi 
Y cuando llega esa noche

 
 

Comentarios del colaborador: es un tema muy bueno espero que les gusten!!! exekiel08

Calificar esta versión:
Aviso: Este fichero es trabajo propio de su transcriptor y representa su interpretación personal de la canción. El material contenido en esta página es para exclusivo uso privado, por lo que se prohibe su reproducción o retransmisión, así como su uso para fines comerciales.
Más versiones de Descontrolado, Jovenes Pordioseros
Descontrolado
acordes
Descontrolado (ver 2)
acordes
Descontrolado (ver 3)
acordes
Descontrolado (ver 4)
acordes
Descontrolado
tablatura
Descontrolado
bajo
Descubre más canciones de Jovenes Pordioseros