Descontrolado, Jovenes Pordioseros (bajo)

Autor: Anónimo | 30717 visualizaciones

 Verso

  no mearrepiento   de haber venido...    de haber viajado..

G|--------------------------------------------------|(Riff1)
D|-----------------------------9-9----9-------------|
A|---------------7-7----7-567-7-7-7--7-789----------|
E|-----------5--5-5-5--5-5--------------------------|
  un hora pra volverte a ver        y si estoy...

G|--------------------------------------------------|(Riff2)
D|---11---------------9-9---9-----------------------|
A|--9--9-7-5--5--457-7-7-7-7-7----------------------|
E|-------------55-----------------------------------|


 solo voy escuchando tu voz|
 puedo dejar muchas cosas  |REPITE RIFFS 1 y 2
 para volverte a ver       |

   Y cuando llega la noche..

G|--------------------------------|(Riff3)
D|--------------------------------|
A|--5----------7------------------|
E|--------------------------5-----|

   Me late el corazón... y cuando llega esa noche

G|--------2--------------------------------------|(Riff 4)
D|-----2/4-4-2/4---------------------------------|
A|--2/4---------5-7------------------------------|
E|-2---------------5--0-0-0----------------------|

 y te quiero, no me preguntes por que|
 puedo dejar muchas cosas            |REPITE RIFFS 1 y 2
 para volverte a ver                 |

  Descontrolado          yo no te quiero perder,no me conformo..

G|--------------------------------------------------|(Riff1)
D|-----------------------------9-9----9-------------|
A|---------------7-7----7-567-7-7-7--7-789----------|
E|-----------5--5-5-5--5-5--------------------------|

  con verte solo una vez al mes

G|--------------------------------------------------|(Riff2)
D|---11---------------9-9---9-----------------------|
A|--9--9-7-5--5--457-7-7-7-7-7----------------------|
E|-------------55-----------------------------------|

   Y cuando llega la noche     |
   me late el corazón          |Repite riffs 3 y 4
   y cuando llega esa noche... |
   Rock"N"Roll.!

   Solo de guitarra: tocar riffs 1 y 2
   Después del solo: Riffs 3 y 4
   Despues hace:
   Riff1
   Riff2
   Riff1
   Riff2
   Riff3
   Riff4

   Fin

   Piojoso de SP ()/
Calificar esta versión:
Aviso: Este fichero es trabajo propio de su transcriptor y representa su interpretación personal de la canción. El material contenido en esta página es para exclusivo uso privado, por lo que se prohibe su reproducción o retransmisión, así como su uso para fines comerciales.
Más versiones de Descontrolado, Jovenes Pordioseros
Descontrolado
acordes
Descontrolado (ver 2)
acordes
Descontrolado (ver 3)
acordes
Descontrolado (ver 4)
acordes
Descontrolado
tablatura
Descontrolado
bajo
Descubre más canciones de Jovenes Pordioseros