Diséñame, Joan Sebastian (tablatura) (ver 3)

Autor: Anónimo | 34893 visualizaciones

Intro:
                    Dm  G            C
e|------------------1-|--------------1-0------0-|-----------|
B|--1-3-3/5-3-1-0-----|0-1h3-1-0---------3-1----|-----------|
G|----------------2---|----------2-0------------|-----------|
D|--------------------|-------------------------|-----------|
A|--------------------|-------------------------|------2--3-|
E|--------------------|-------------------------|-3--5------|

     C7                 F              G
e|--------------------------|--5----|--------|--5-3-0--5-3-0--|
B|--------------------------|---6---|----3---|-------3------3-|
G|---5--5--5--5-------------|----7--|---4----|----------------|
D|--5--5--5--5--5-5-5---5/7-|-------|--5-----|----------------|
A|--------------------------|-------|--------|----------------|
E|--------------------------|-------|--------|----------------|

    C                    C
e|---------|--3---1----|--------|
B|--1------|----5---3--|-1------|
G|---------|-----------|--------|
D|----2----|-----------|---2----|
A|-----3---|-----------|----3---|
E|------3--|-----------|-----3--|

SOLO:

e|------------------1-|--1-1-0------1-0-1-1-0------|
B|--1-3-3/5-3-1-0-----|--------3-1-0-----------3-1-|
G|----------------2---|----------------------------|
D|--------------------|----------------------------|
A|--------------------|----------------------------|
E|--------------------|----------------------------|

     C7                 F              G
e|--------------------------|--5----|--------|--5-3-0--5-3-0--|
B|--------------------------|---6---|----3---|-------3------3-|
G|---5--5--5--5-------------|----7--|---4----|----------------|
D|--5--5--5--5--5-5-5---5/7-|-------|--5-----|----------------|
A|--------------------------|-------|--------|----------------|
E|--------------------------|-------|--------|----------------|


    C                    C
e|---------|--3---3----|--------|
B|--1------|----5---5--|-1------|
G|---------|-----------|--------|
D|----2----|-----------|---2----|
A|-----3---|-----------|----3---|
E|------3--|-----------|-----3--|

Se pueden guiar de este video TURORIAL
http://www.youtube.com/watch?v=NSp23A_2qKw&feature=youtu.be
espero que les guste Suscribancen
Calificar esta versión:
Aviso: Este fichero es trabajo propio de su transcriptor y representa su interpretación personal de la canción. El material contenido en esta página es para exclusivo uso privado, por lo que se prohibe su reproducción o retransmisión, así como su uso para fines comerciales.
Más versiones de Diséñame, Joan Sebastian
Diseñame
acordes
Diséñame
tablatura
Diséñame (ver 2)
tablatura
Diséñame (ver 3)
tablatura
Descubre más canciones de Joan Sebastian