Diséñame, Joan Sebastian (tablatura)

Autor: Anónimo | 32055 visualizaciones

Hola! que tal quiero dedicarle esta cancion a la niña mas hermosa
que jamas haya visto a la que me ha robado el corazon
por ella es que saque esta cancion. para ti ALICIA
espero y les guste...:)



Este requinto acompaña al poema
              Dm-G          C       C7
e.|-------------1--------------1-0---0-
b.|-1-3-5-3-1-0----0-1-3-1-0--0---3-1--
g.|------------2-------------2---------

                   F     G            C    C
e.|-------------------1--------5-3--5-3---0-3-1-0-
b.|-------------------1-------3---3----3--1-5-3-1-
g.|---5-5-5-------------2----4-----4----4-0-----0-
D.|-5--5-5-5-5-5-5h7---3----5-------------2-----2-
A.|---------------------------------------3-----3-
E.|---------------------------------------0-----0-

Este es el arpegeo que utilize. no es el original pero si
cuadra con el requinto poema y casi toda la cancion
porque en la parte intermedia cambia el rasgueo escuchenla
para que chequen.

 Ejemplo con Dm
e.|------1----
b.|---3----3--
g.|--2-2--2-2-
D.|-0---------

       Dm                                    G
 Poema:Se que no soy el príncipe que soñaste
                                           C
          Y en mi hay un altar que es para ti
        C7                                   F
          Te invito a moldear lo que anhelaste
                         G               C
          Hazme a tu modo que para ti nací e.|3-1-0-
                                           b.|5-3-1-

      C                                  Dm
Diséñame que quiero ser todo lo que te guste
      G                               C
Diséñame que yo autorizare cualquier ajuste
           C7             Dm   G                            C
Quítame o ponme lo que quieras, te doy mi esencia y mi verdad
 C7                   F     G             C
Para que saldes tus quimeras Y tu felicidad. e.|3-1-0
                                             b.|5-3-1

      C                                   Dm
Diséñame los besos que se llene el pasaporte
        G                                C
Para llegar al mundo donde yo quiero llevarte
C7                      F      G                             C
Acórtame o alárgame las alas, anida  y vuela siempre junto a mí
C7                        F            G              C
Que yo no necesito más bengalas, si tu luz va junto a mí. e.|3-1-0
                                                          b.|5-3-1

    Requinto: Aqui es donde cambia el rasgueo tipo mariachi
              acompañando el requinto y se sigue el rasgueo.
                     Dm-G                C
e.|-8-10-12-10-8-7-8-13---7-8-10-8-7-5-7-13-12-10-8-12


          C7        F    G           C     C
e.|-------------------1--------5-3--5-3---0-3-1-0-
b.|-------------------1-------3---3----3--1-5-3-1-
g.|---5-5-5-------------2----4-----4----4-0-----0-
D.|-5--5-5-5-5-5-5h7---3----5-------------2-----2-
A.|---------------------------------------3-----3-
E.|---------------------------------------0-----0-

       C                         Dm
Diséñame muy a tu antojo a tu capricho
             G                                    C
Ponme en mi voz, él te amo que jamas nadie te ha dicho
  C7                    F     G                         C
Acórtame o alárgame las alas, respeta solamente al corazón
                     C7             F            G           C
Que hay ya hay una altar donde tu vives, donde  nace mi canción. e.|3-1-0
                                                                 b.|5-3-1

Requinto 2: cambia solo unos tonos

                     Dm              G          C
e.|-8-10-12-10-8-7-8-13--12-10-8-7-5-3-13-12-13-13-12-10-8-


          C7        F    G           C     C
e.|-------------------1--------5-3--5-3---0-3-1-0-
b.|-------------------1-------3---3----3--1-5-3-1-
g.|---5-5-5-------------2----4-----4----4-0-----0-
D.|-5--5-5-5-5-5-5h7---3----5-------------2-----2-
A.|---------------------------------------3-----3-
E.|---------------------------------------0-----0-

                            F   G   C
Diseñame... e.|-0-5-3-----------3---0
            b.|------5-3--------3---1-
            g.|---------5-2-0---4---0-
            d.|-----------------5---2
            a.|-----------------5---3
            e.|-----------------3---0-



espero les haya gustado me esmere lo mas que pude
Saludos para yecapixtla morelos y a mis compas de rondalla
mi compa Carmona, Hugo, Eber y Alberto suerte su compa Jona
TE AMO ALICIA.:)
Calificar esta versión:
Aviso: Este fichero es trabajo propio de su transcriptor y representa su interpretación personal de la canción. El material contenido en esta página es para exclusivo uso privado, por lo que se prohibe su reproducción o retransmisión, así como su uso para fines comerciales.
Más versiones de Diséñame, Joan Sebastian
Diseñame
acordes
Diséñame
tablatura
Diséñame (ver 2)
tablatura
Diséñame (ver 3)
tablatura
Descubre más canciones de Joan Sebastian