Diséñame, Joan Sebastian (tablatura) (ver 2)

Autor: Anónimo | 14687 visualizaciones

Aquí esta Diseñame de Joan Sebastian de su mas reciente
disco espero y la disfruten :)



Cadd9:    C:    C7    G:     F:    Dm
   E:0     E:0   E:3   E:3    E:1   E:1
   B:3     B:1   B:5   B:3    B:1   B:3
   G:0     G:0   G:3   G:0    G:2   G:2
   D:2     D:2   D:5   D:0    D:3   D:3
   A:3     A:3   A:3   A:2    A:3   A:0
   E:0     E:X   E:x   E:3    E:1   E:x



Intro:
    C                           Dm           G
  Sé que no soy el príncipe que soñaste..
e.|-----0------------------------1----5-3-0----3----------/
b.|-1h3--1h3h1-0-----------------3-------------3----------/
g.|---------- ---3---------------2-------------0----------/
D.|------------------------------0-------------0----------/
A.|-0----------------------------0-------------2----------/
E.|------------------------------0-------------3----------/

    C                F           G     C             Dm
 y en mi hay un altar que es para ti…

e.|-----------------1h0-----0------------------------------/
b.|-0h1-1h3-1-0---------3h1-3/5-------------1-1-1--1-1-3---/
g.|-------------2-0------------------------0-0-0-0-0-0-0h2-/
D.|---------------------------------------2----------------/
A.|----------------------------------0-2-3-----------------/
E.|-3-------------------------------3----------------------/


    G                             C   Cadd9 C
e.|-5-3h5h3-----------3---3-3---3--0---0--0--0------------/
b.|---------5-3---3---3h5-3-3h5-3--1--1---3--1------------/
g.|--------------5-5---------------0------0--0------------/
D.|--------------------------------2------2--2------------/
A.|--------------------------------3------3--3------------/
E.|--------------------------------x------0--0------------/

   C                                 Dm
Diséñame que quiero ser todo lo que te guste
      G                                C     C7
diséñame que yo autorizaré cualquier ajuste
                         F     G
quítame o ponme lo que quieras
                           C
te doy mi esencia y mi verdad
                       Dm   G            C
para que saldes tus quimeras y tu felicidad

      C                              Dm
Diséñame los besos que sellen el pasaporte
       G                                C/Cadd9/C
para llegar al mundo donde yo quiero llevarte
  C7                    F
acórtame o alárgame las alas
  G                          C/Cadd9/C
anida y vuela siempre junto a mi
    C7                    F
que yo no necesito más bengalas
      G               C/Cadd9/C
si tu luz va junto a mi.





Se repite el intro
 Dm  G   C/Caad9/C7  F  G  C/Caad9/C


      C                          Dm
Diséñame muy a tu antojo a tu capricho
          G                                   C/Caad9/C
pon en mi voz el TE AMO que jamás nadie te ha dicho
 C7                     F
acórtame o alárgame las alas
    G                    C/Caad9/C
respeta solamente al corazón
     C7                          F
que ahí ya hay un altar donde tu vives
       G           C/Caad9/C
donde nace mi canción


Dm G  C/Cadd9/C7  F G C


       C
Diseñame...


e.|--5-3---------0-----------------/..
b.|-5---5-3--3---1----------------/…..
g.|---------5--------------------/……..
D.|--------------2--------------/……..
A.|--------------3-------------/………..
E.|--------------x------------/…………..


Cualquier duda mi twitter es @IAmJorgeAguiar
Calificar esta versión:
Aviso: Este fichero es trabajo propio de su transcriptor y representa su interpretación personal de la canción. El material contenido en esta página es para exclusivo uso privado, por lo que se prohibe su reproducción o retransmisión, así como su uso para fines comerciales.
Más versiones de Diséñame, Joan Sebastian
Diseñame
acordes
Diséñame
tablatura
Diséñame (ver 2)
tablatura
Diséñame (ver 3)
tablatura
Descubre más canciones de Joan Sebastian