Tomalo, Hillsong (tablatura) (ver 3)

Autor: NIVEK | 38221 visualizaciones

INTRO
GUITARRA
e|----------------------------14-14h16-14h16--|
B|--------------------------------------------|
G|--181818--161616---151515-------------------|
D|--------------------------------------------|
A|--------------------------------------------|
E|--------------------------------------------|

e|---------------------------------------------|
B|------------------------------17-----17------|
G|--181818--161616---151515--------15------15--|
D|---------------------------------------------|
A|---------------------------------------------|
E|---------------------------------------------|

*
e|----------------------------14-14h16-14h16--|
B|--------------------------------------------|
G|--181818--161616---151515-------------------|
D|--------------------------------------------|
A|--------------------------------------------|
E|--------------------------------------------|

e|---------------------------------------------|
B|------------------------------17-----17------|
G|--181818--161616---151515--------15------15--|
D|---------------------------------------------|
A|---------------------------------------------|
E|---------------------------------------------|
entra la segunda guitarra
e|--------------------------------------------|
B|----------------33--------------------------|
G|---444-444-4443333--------------------------|
D|---444-444-4443311------------------------|
A|---222-222-22211---------------------------|
E|--------------------------------------------|

coro y verso
e|------------------------------------|
B|------------------------------------|
G|--4-4-4-4-4-4-4-4-------------------|
D|--4-4-4-4-4-4-4-4--4-4-4-4-4-4-4-4--|
A|--2-2-2-2-2-2-2-2--4-4-4-4-4-4-4-4--|
E|-------------------2-2-2-2-2-2-2-2--|

e|------------------------------------|
B|------------------------------------|
G|--6-6-6-6-6-6-6-6--1-1-1-1-1-1-1-1--|
D|--6-6-6-6-6-6-6-6--2-2-2-2-2-2-2-2--|
A|--4-4-4-4-4-4-4-4--2-2-2-2-2-2-2-2--|
E|------------------------------------|



INTRO


Coro    x 2

Bridge 1
e|--------------------------------------|
B|--------------------------------------|
G|--------------------------------------|
D|--------------------------------------|
A|--22-44-66-77-------------------------|
E|--------------------------------------|

Bridge 2

e|---------------------------------------------------2-----|
B|------------------------------------------------------------|
G|--6-6------------1-1-1-1-1-1-1-1--6-6------------3*---3*----|
D|--6-6--6-6--4-4--2-2-2-2-2-2-2-2--6-6--6-6--4-4-------------|
A|--4-4--6-6--4-4--2-2-2-2-2-2-2-2--4-4--6-6--4-4-------------|
E|-------4-4--2-2------------------------4-4--2-2-------------|

e|-------------------------------------------------------|
B|-------------------------------------------------------|
G|--6-6------------1-1-4-4-4-4-4-4-4-4s6-6---------1-1---|
D|--6-6--6-6--4-4--2-2-4-4-4-4-4-4-4-4s6-6-6-6-4-4-2-2--|
A|--4-4--6-6--4-4--2-2-2-2-2-2-2-2-2-2s4-4-6-6-4-4-2-2---|
E|-------4-4--2-2--------------------------4-4-2-2-------|

e|---------------------------|
B|---------------------------|
G|-6-6------------3*-------| 
D|-6-6--6-6--4-4-------------|
A|-4-4--6-6--4-4-------------| 
E|------4-4--2-2-------------| 

e|---------------------------------|
B|---------------------------------|
G|--6-6------------1-1-4-4-4-4-4-4-|
D|--6-6--6-6--4-4--2-2-4-4-4-4-4-4-|
A|--4-4--6-6--4-4--2-2-2-2-2-2-2-2-|
E|-------4-4--2-2------------------| 

aqui va el bajo


e|------------------------------------|
B|------------------------------------|
G|--4-4-4-4-4-4-4-4-------------------|
D|--4-4-4-4-4-4-4-4--4-4-4-4-4-4-4-4--|
A|--2-2-2-2-2-2-2-2--4-4-4-4-4-4-4-4--|
E|-------------------2-2-2-2-2-2-2-2--|

e|------------------------------------|
B|------------------------------------|
G|--6-6-6-6-6-6-6-6--1-1-1-1-1-1-1-1--|
D|--6-6-6-6-6-6-6-6--2-2-2-2-2-2-2-2--|
A|--4-4-4-4-4-4-4-4--2-2-2-2-2-2-2-2--|
E|------------------------------------|

e|------------------------------------|
B|------------------------------------|
G|--4-4-4-4-4-4-4-4-------------------|
D|--4-4-4-4-4-4-4-4--4-4-4-4-4-4-4-4--|
A|--2-2-2-2-2-2-2-2--4-4-4-4-4-4-4-4--|
E|-------------------2-2-2-2-2-2-2-2--|

e|------------------------------------|
B|------------------------------------|
G|--6-6-6-6-6-6-6-6--1-1-1-1-1-1-1-1--|
D|--6-6-6-6-6-6-6-6--2-2-2-2-2-2-2-2--|
A|--4-4-4-4-4-4-4-4--2-2-2-2-2-2-2-2--|
E|------------------------------------|

final
e|-------------------------------------------------|
B|-------------------------------------------------|
G|--6--6--6--6---6--6--6--6---6-6-6-6-6-6-6-6---4--|
D|--6--6--6--6---6--6--6--6---6-6-6-6-6-6-6-6---4--|
A|--4--4--4--4---4--4--4--4---4-4-4-4-4-4-4-4---2--|
E|-------------------------------------------------|
Calificar esta versión:
Aviso: Este fichero es trabajo propio de su transcriptor y representa su interpretación personal de la canción. El material contenido en esta página es para exclusivo uso privado, por lo que se prohibe su reproducción o retransmisión, así como su uso para fines comerciales.
Más versiones de Tomalo, Hillsong
Tomalo
acordes
Tomalo
tablatura
Tomalo (ver 2)
tablatura
Tomalo (ver 3)
tablatura
Tomalo
bajo
Descubre más canciones de Hillsong