Tomalo, Hillsong (tablatura)

Autor: ruben | 38163 visualizaciones



Intro - Guitar 1
e|--------------------2h4-2h4-2h4-----|
B|--2-2-2-0-0-0-----------------------|
G|--------------3-3-3-----------------| 
D|------------------------------------|    x 4
A|------------------------------------|
E|------------------------------------|


Verse 1 - Guitar 1
e|--------------------2h4-2h4-2h4-----|
B|--2-2-2-0-0-0-----------------------|
G|--------------3-3-3-----------------| 
D|------------------------------------|    x 9
A|------------------------------------|
E|------------------------------------|


Verse 1 - Guitar 2 (come in after guitar 1 plays 4 times)
e|------------------------------------|
B|------------------------------------|
G|------------------------------------|
D|---------------------------1-1------|    x 5
A|--2-2-2--2-2-2--2-2-2--1-1----------|
E|------------------------------------|


Chorus - Both Guitars
e|------------------------------------|
B|------------------------------------|
G|--4-4-4-4-4-4-4-4-------------------|
D|--4-4-4-4-4-4-4-4--4-4-4-4-4-4-4-4--|
A|--2-2-2-2-2-2-2-2--4-4-4-4-4-4-4-4--|
E|-------------------2-2-2-2-2-2-2-2--|

e|------------------------------------|
B|------------------------------------|
G|------------------------------------|
D|--6-6-6-6-6-6-6-6--2-2-2-2-2-2-2-2--|            x 1
A|--6-6-6-6-6-6-6-6--2-2-2-2-2-2-2-2--|
E|--4-4-4-4-4-4-4-4--0-0-0-0-0-0-0-0--|

e|---------------------------------------|
B|---------------------------------------|
G|--4-4-4-4-4-4-4-4-------------------6--|
D|--4-4-4-4-4-4-4-4--4-4-4-4-4-4-4-4--6--|
A|--2-2-2-2-2-2-2-2--4-4-4-4-4-4-4-4--4--|
E|-------------------2-2-2-2-2-2-2-2-----|


Verse 2 - Guitar 1 (played with guitar 2)
e|--------------------2h4-2h4-2h4-----|
B|--2-2-2-0-0-0-----------------------|
G|--------------3-3-3-----------------| 
D|------------------------------------|    x 5
A|------------------------------------|
E|------------------------------------|


Verse 2 - Guitar 2 (played with guitar 1)
e|------------------------------------|
B|------------------------------------|
G|------------------------------------|
D|---------------------------1-1------|    x 5
A|--2-2-2--2-2-2--2-2-2--1-1----------|
E|------------------------------------|


Chorus - Both Guitars      x 2


Bridge 1 - Guitar 1
e|-----------------------------0-0-0-0--|
B|--0-0-0-0--2-2-2-2--4-4-4-4-----------|
G|--------------------------------------|
D|--------------------------------------|    x 1
A|--------------------------------------|
E|--------------------------------------|


Bridge 2 - Both Guitars
e|------------------------------------------------------------------|
B|------------------------------------------------------------------|
G|--6-6-----------------------------6-6-----------------------------|
D|--6-6--6-6--4-4--2-2-2-2-2-2-2-2--6-6--6-6--4-4--2-2-2-2-2-2-2-2--|   
A|--4-4--6-6--4-4--2-2-2-2-2-2-2-2--4-4--6-6--4-4--2-2-2-2-2-2-2-2--|
E|-------4-4--2-2--0-0-0-0-0-0-0-0-------4-4--2-2--0-0-0-0-0-0-0-0--|   
                                                                         x 2
e|--------------------------------------------------------------------|
B|--------------------------------------------------------------------|
G|--6-6-----------------------------4-4-4-4-4-4-4-4--4-4-4-4-4-4-4-4--|
D|--6-6--6-6--4-4--2-2-2-2-2-2-2-2--4-4-4-4-4-4-4-4--4-4-4-4-4-4-4-4--|   
A|--4-4--6-6--4-4--2-2-2-2-2-2-2-2--2-2-2-2-2-2-2-2--2-2-2-2-2-2-2-2--|
E|-------4-4--2-2--0-0-0-0-0-0-0-0------------------------------------|


Bass Break


Chorus - Both Guitars   x 2


Outro - Both Guitars   
e|-------------------------------------------------|
B|-------------------------------------------------|
G|--6--6--6--6---6--6--6--6---6-6-6-6-6-6-6-6---4--|
D|--6--6--6--6---6--6--6--6---6-6-6-6-6-6-6-6---4--|   x 1
A|--4--4--4--4---4--4--4--4---4-4-4-4-4-4-4-4---2--|
E|-------------------------------------------------|





Calificar esta versión:
Aviso: Este fichero es trabajo propio de su transcriptor y representa su interpretación personal de la canción. El material contenido en esta página es para exclusivo uso privado, por lo que se prohibe su reproducción o retransmisión, así como su uso para fines comerciales.
Más versiones de Tomalo, Hillsong
Tomalo
acordes
Tomalo
tablatura
Tomalo (ver 2)
tablatura
Tomalo (ver 3)
tablatura
Tomalo
bajo
Descubre más canciones de Hillsong