Tomalo, Hillsong (tablatura) (ver 2)

Autor: isma:_123 | 27588 visualizaciones



**********************************************************************

Intro - Guitarra 1
e|--9-9-9-7-7-7-6-6-6--14-14-14-------|
B|-----------------------12-12--------|
G|------------------------------------|
D|------------------------------------|    x 4
A|------------------------------------|
E|------------------------------------|

Verso 1 - Guitarra 1
e|--9-9-9-7-7-7-6-6-6--14-14-14-------|
B|-----------------------12-12--------|
G|------------------------------------|
D|------------------------------------|    x 9
A|------------------------------------|
E|------------------------------------|


Verso 1 - Guitarra 2 (viene despues de que guitarra 1 toque 4)
e|------------------------------------|
B|----------------------------8-8-----|
G|----------------------------8-8-----|
D|--9-9-9--9-9-9--9-9-9--8-8--6-6-----|    x 5
A|--9-9-9--9-9-9--9-9-9--8-8--6-6-----|
E|--7-7-7--7-7-7--7-7-7--6-6----------|

Coro
e|------------------------------------|
B|------------------------------------|
G|--4-4-4-4-4-4-4-4-------------------|
D|--4-4-4-4-4-4-4-4--4-4-4-4-4-4-4-4--|
A|--2-2-2-2-2-2-2-2--4-4-4-4-4-4-4-4--|
E|-------------------2-2-2-2-2-2-2-2--|

e|--9-9-9-7-7-7-6-6-6--14-14-14-------|
B|-----------------------12-12--------|
G|------------------------------------|
D|------------------------------------|    x 1
A|------------------------------------|
E|------------------------------------|

e|---------------------------------------|
B|---------------------------------------|
G|--4-4-4-4-4-4-4-4-------------------6--|
D|--4-4-4-4-4-4-4-4--4-4-4-4-4-4-4-4--6--|
A|--2-2-2-2-2-2-2-2--4-4-4-4-4-4-4-4--4--|
E|-------------------2-2-2-2-2-2-2-2-----|


Verso 2 - Guitarra 1
e|--9-9-9-7-7-7-6-6-6--14-14-14-------|
B|-----------------------12-12--------|
G|------------------------------------|
D|------------------------------------|    x 5
A|------------------------------------|
E|------------------------------------|
Verso 2 - Guitarra 2
e|------------------------------------|
B|----------------------------8-8-----|
G|----------------------------8-8-----|
D|--9-9-9--9-9-9--9-9-9--8-8--6-6-----|    x 5
A|--9-9-9--9-9-9--9-9-9--8-8--6-6-----|
E|--7-7-7--7-7-7--7-7-7--6-6----------|


Coro    x 2

Bridge 1
e|-----------------------------0-0-0-0--|
B|--0-0-0-0--2-2-2-2--4-4-4-4-----------|
G|--------------------------------------|
D|--------------------------------------|    x 1
A|--------------------------------------|
E|--------------------------------------|

Bridge 2
e|------------------------------------------------------------------|
B|------------------------------------------------------------------|
G|--6-6-----------------------------6-6-----------------------------|
D|--6-6--6-6--4-4--2-2-2-2-2-2-2-2--6-6--6-6--4-4--2-2-2-2-2-2-2-2--|
A|--4-4--6-6--4-4--2-2-2-2-2-2-2-2--4-4--6-6--4-4--2-2-2-2-2-2-2-2--|
E|-------4-4--2-2--0-0-0-0-0-0-0-0-------4-4--2-2--0-0-0-0-0-0-0-0--|

e|-------------------------------------------------------------------|
B|-------------------------------------------------------------------|
G|--6-6----------------------------4-4-4-4-4-4-4-4--4-4-4-4-4-4-4-4--|
D|--6-6--6-6--4-4--2-2-2-2-2-2-2-2-4-4-4-4-4-4-4-4--4-4-4-4-4-4-4-4--|
A|--4-4--6-6--4-4--2-2-2-2-2-2-2-2-2-2-2-2-2-2-2-2--2-2-2-2-2-2-2-2--|
E|-------4-4--2-2--0-0-0-0-0-0-0-0-----------------------------------|

coro – x 2

final
e|-------------------------------------------------|
B|-------------------------------------------------|
G|--6--6--6--6---6--6--6--6---6-6-6-6-6-6-6-6---4--|
D|--6--6--6--6---6--6--6--6---6-6-6-6-6-6-6-6---4--|   x 1
A|--4--4--4--4---4--4--4--4---4-4-4-4-4-4-4-4---2--|
E|-------------------------------------------------|

El tono del Intro me sonaba un poco muy bajo asi que asi es como
la escucho yo...espero la usen!





Calificar esta versión:
Aviso: Este fichero es trabajo propio de su transcriptor y representa su interpretación personal de la canción. El material contenido en esta página es para exclusivo uso privado, por lo que se prohibe su reproducción o retransmisión, así como su uso para fines comerciales.
Más versiones de Tomalo, Hillsong
Tomalo
acordes
Tomalo
tablatura
Tomalo (ver 2)
tablatura
Tomalo (ver 3)
tablatura
Tomalo
bajo
Descubre más canciones de Hillsong