Patience, Guns N´ Roses (tablatura) (ver 4)

Autor: kaulg | 31997 visualizaciones

"PATIENCE-GUNS N' ROSES"

Ola de nuevo pues aqui les dejo el solo del tema "patience" 
de mi banda favorita Guns N' Roses,espero que les sea util, comenten....

SOLO.

E |----8p7-8--8/10-8-----------------8p7-8-8/10-10/12------|
B |------------------10/12-10--8-8-------------------------|
G |--------------------------------------------------------|
D |--------------------------------------------------------|
A |--------------------------------------------------------|
E |--------------------------------------------------------|

E |----8p7-8--8/10-8-------------------10/12-10-10---------|
B |------------------10/12-10--8-8---7---------------------|
G |--------------------------------------------------------|
D |--------------------------------------------------------|
A |--------------------------------------------------------|
E |--------------------------------------------------------|

E |---12/14-12-10-12-10v-----------------------------------|
B |---------------------------5-8--------------------------|
G |-----------------------7b9-----7b9r7--5-7-----4-8-------|
D |------------------------------------------7b9-----------|
A |--------------------------------------------------------|
E |--------------------------------------------------------|

E |--------------------------------------------------------|
B |---------------5-8---------------8-10-10b12r10-8-10-----|
G |-----------7b9-----7b9r7-5--7/9---------------------9v--|
D |--7b9r7-5-----------------------------------------------|
A |--------------------------------------------------------|
E |--------------------------------------------------------|

E |--------------------------------------------------------|
B |--8-10-10b12r10-8-10------8-10-10b12r10-8-10------------|
G |----------------------9-----------------------9---------|
D |--------------------------------------------------------|
A |--------------------------------------------------------|
E |--------------------------------------------------------|

E |--------------------------------------------------------|
B |--8-10-8-10/12-10-10v------3h5-3----------------7h8-7v--|
G |---------------------------------4p2------2-------------|
D |--------------------------------------3h4---0-----------|
A |--------------------------------------------------------|
E |--------------------------------------------------------|

E |------------------------2---0---3---2---0---2-----------|
B |-------------7h8-7v-----3---3---3---3---3---3-----------|
G |--4p2-------------------2---2---2---2---2---2-----------|
D |------3h4-0---------------------------------------------|
A |--------------------------------------------------------|
E |--------------------------------------------------------|



b=bend
h=hammer on
p=pull off
v=vibracion
/=slide
Calificar esta versión:
Aviso: Este fichero es trabajo propio de su transcriptor y representa su interpretación personal de la canción. El material contenido en esta página es para exclusivo uso privado, por lo que se prohibe su reproducción o retransmisión, así como su uso para fines comerciales.
Más versiones de Patience, Guns N´ Roses
Patience
acordes
Patience (ver 2)
acordes
Patience (ver 3)
acordes
Patience (ver 4)
acordes
Patience (ver 5)
acordes
Patience (ver 6)
acordes
Patience (ver 7)
acordes
Patience
tablatura
Patience (ver 2)
tablatura
Patience (ver 3)
tablatura
Patience (ver 4)
tablatura
Patience
armonica
Patience (ver 2)
armonica
Patience
video guitarra
Patience (ver 2)
video guitarra
Descubre más canciones de Guns N´ Roses