Patience, Guns N´ Roses (acordes) (ver 6)

Autor: agustin vredeslago | 35023 visualizaciones

acddsus2dsus4emg
 Intro:
The chords over this intro part are: C - G - A - D
			             C - G - C - Em
			             C - G - D - D

e|----------------10-------------------------------------------------------
B|--------8-10/12----12\10-8-10--12-13-14-15-12----------------------------
G|-5p4-5----------------------------------------14bh-12--14p12-14~~--------
D|-------------------------------------------------------------------------
A|-------------------------------------------------------------------------
E|-------------------------------------------------------------------------


e|------------------10----8-----7-----5\3-----3----------------------------
B|-12h13-14------/7----/5----/5----5-------3-------------------------------
G|-12h13-14----------------------------------------------------------------
D|-------------------------------------------------------------------------
A|-------------------------------------------------------------------------
E|-------------------------------------------------------------------------

Verse:

the chords in the verse are just C - G - A - D played twice. The D is
played normal then the little fill of D-Dsus2-D-Dsus4-D-Dsus2-D is
played, which is just:

e|--2--0--2--3--2--0--2
B|--3--3--3--3--3--3--3
G|--2--2--2--2--2--2--2
D|--0--0--0--0--0--0--0
A|---------------------
E|---------------------
[updated 1-3-02 jedi77!]


Chorus:
The chorus is just C - G - A - D
                   C - G - D [followed by the same fill as in the verses]

The second time you play this in the chorus you play the little D fill
twice and if memory serves me correctly you play the following lead
fill aswell.

e|-----10-----------14-----------------------------------------------------
B|-/7----------/10---------------------------------------------------------
G|-------------------------------------------------------------------------
D|-------------------------------------------------------------------------
A|-------------------------------------------------------------------------
E|-------------------------------------------------------------------------



Guitar Solo:
updated 1-3-02:jedi77!
         C         G                   C         Em

e|--8p7-|8--8/10-5h7-5------------8p7-|8-8/10-10/12----8p7-|
B|------|--------------8-7-8----------|--------------------|
G|------|-----------------------------|--------------------|
D|------|-----------------------------|--------------------|
A|------|-----------------------------|--------------------|
E|------|-----------------------------|--------------------|

  C         G          D

e|8--8/10-5h7-5-------|/12-10-10--10--/14-12-----------------|
B|--------------8--8-8|-----------------------15-15----------|
G|--------------------|--------------------------------------|
D|--------------------|--------------------------------------|
A|--------------------|--------------------------------------|
E|--------------------|--------------------------------------|

 C                 G
e|----0-3----------------3-------|
B|3/5-----5\3-1-3--2/4-4---2hb-0-|
G|-------------------------------|
D|-------------------------------|
A|-------------------------------|
E|-------------------------------|



  C              Em                 C        G              D

e|------3-----------3-5^3------3-5-|5^-5-5-3-5b-3-5--3-5-3-5b-5-5---------
B|3/5-5---5\3-1-3/5--------5-------|--------------------------------------
G|---------------------------------|--------------------------------------
D|---------------------------------|--------------------------------------
A|---------------------------------|--------------------------------------
E|---------------------------------|--------------------------------------


Rhythm Guitar plays this fill and slows down [rittardando] leading into the
Outro
|
| e|--2--0--2--3--2--0--2
| B|--3--3--3--3--3--3--3
| G|--2--2--2--2--2--2--2
| D|--0--0--0--0--0--0--0
| A|---------------------
| E|---------------------


Outro:

The outro is just D - G played over and over with the singing, there's
and outro solo too I
think, but I never bothered figuring it out, you can just improvise with
the G major scale. Updated 1-3-02 jedi77!
|-3-2-------------|--2--|
|-----3-----------|--3--|
|-------2-0-------|--2--|
|-----------4-0---|--0--|
|-----------------|-----|
|-----------------|-----| 
Calificar esta versión:
Aviso: Este fichero es trabajo propio de su transcriptor y representa su interpretación personal de la canción. El material contenido en esta página es para exclusivo uso privado, por lo que se prohibe su reproducción o retransmisión, así como su uso para fines comerciales.
Más versiones de Patience, Guns N´ Roses
Patience
acordes
Patience (ver 2)
acordes
Patience (ver 3)
acordes
Patience (ver 4)
acordes
Patience (ver 5)
acordes
Patience (ver 6)
acordes
Patience (ver 7)
acordes
Patience
tablatura
Patience (ver 2)
tablatura
Patience (ver 3)
tablatura
Patience (ver 4)
tablatura
Patience
armonica
Patience (ver 2)
armonica
Patience
video guitarra
Patience (ver 2)
video guitarra
Descubre más canciones de Guns N´ Roses