Patience, Guns N´ Roses (acordes) (ver 7)

Autor: Slash xD | 25527 visualizaciones

         Guns N' Roses- Patience
Intro: Do Sol La Re
       Do Sol La Re
       Do Sol Do Mim  

Do
Shed a tear 'cause I'm missin' you
Sol
I'm still alright to smile
La                                     Re
Girl, I think about you every day now
Do
Was a time when I wasn't sure
Sol
But you set my mind at ease
La
There is no doubt
Re
You're in my heart now

Do                       Sol
Said, woman, take it slow
Do                       Mim
It'll work itself out fine
Do             Sol               Re - - - - 
All we need is just a little patience       - 
Coro:                                       -
Re                                          -
1-2-2--0--2--3--2--0--2--2                  -
2-3-3--3--3--3--3--3--3--3----flecha---------
3-2-2--2--2--2--2--2--2--2
4------------------------
5------------------------
6------------------------x5

Do                       Sol
Said, sugar, make it slow
Do                    Mim
And we come together fine

Do              Sol                Re   repetir lo de arriba                      
All we need is just a little patience 

Mm, yeah

Do
I sit here on the stairs
Sol
'Cause I'd rather be alone
La
If I can't have you right now
Re
I'll wait, dear
Do
Sometimes I get so tense
Sol
But I can't speed up the time
La
But you know, love
Re
There's one more thing to consider

COR: REPETIR LO DE ARRIBA

Said, woman, take it slow

And things will be just fine

You and I'll just use a little patience

Said, sugar, take the time

'Cause the lights are shining bright

You and I've got what it takes

To make it, We won't fake it,

I'll never break it

'cause I can't take it

Solo:
1------------------------------------------------------
2-13-13--15-13-----------------13-13--15-17------------
3--------------14-16-14-12-12--------------------------
4------------------------------------------------------
5------------------------------------------------------
6------------------------------------------------------

1------------------------------------------------------
2-13-13--15-13-----------------15-17--15-15-19-17-15-15-
3--------------14-16-14-12-12--------------------------
4------------------------------------------------------
5------------------------------------------------------
6------------------------------------------------------

1-------------------------------------------------
2------5--8-----------------------------------5--8-
3---7--------7----5--7-------4--8----------7-------
4--------------------------7------7----5-----------
5--------------------------------------------------
6--------------------------------------------------

1-----------------------------------------------------------------------
2-------------8-10-8----8-10--8-10-8------------8--10-12--10-10---------
3--7--5--7-9----------9-----------------9-------------------------------
4-----------------------------------------------------------------------
5-----------------------------------------------------------------------
6-----------------------------------------------------------------------
0
1-----------------------------------------------------------------------
2-------------------------7-7-------------------7-7---------------------
3--11-9-----------------------------------------------------------------
4----------7-----7--------------7-----7------------------7-----7--------
5------------7-8----5---------------7-8-----5----------------7-8-----5--
6-----------------------------------------------------------------------

1-----------------------
2---7-7-----------------
3-----------------------
4----------------------- 
5-----------------------
6-----------------------



Do        Re         Do         Re    repetir hasta el final          
...little patience, mm yeah, mm yeah

need a little patience, yeah

just a little patience, yeah

some more patience, yeah

need some patience, yeah

could use some patience, yeah

gotta have some patience, yeah

all it takes is patience,

just a little patience

is all you need *


I BEEN WALKIN' THE STREETS AT NIGHT

JUST TRYIN' TO GET IT RIGHT

HARD TO SEE WITH SO MANY AROUND

YOU KNOW I DON'T LIKE

BEING STUCK IN THE CROWD

AND THE STREETS DON'T CHANGE

BUT BABY THE NAME

I AIN'T GOT TIME FOR THE GAME

'CAUSE I NEED YOU

YEAH, YEAH, BUT I NEED YOU

OO, I NEED YOU

WHOA, I NEED YOU

OO, ALL THIS TIME **
Final:
Re
1-3-2--------------2-2-------
2-----3-0----------3---------
3---------2--------2---------
4-----------2------0---------
5-------------2----0---------
6------------------0---------
Avisenme si ay un error
Calificar esta versión:
Aviso: Este fichero es trabajo propio de su transcriptor y representa su interpretación personal de la canción. El material contenido en esta página es para exclusivo uso privado, por lo que se prohibe su reproducción o retransmisión, así como su uso para fines comerciales.
Más versiones de Patience, Guns N´ Roses
Patience
acordes
Patience (ver 2)
acordes
Patience (ver 3)
acordes
Patience (ver 4)
acordes
Patience (ver 5)
acordes
Patience (ver 6)
acordes
Patience (ver 7)
acordes
Patience
tablatura
Patience (ver 2)
tablatura
Patience (ver 3)
tablatura
Patience (ver 4)
tablatura
Patience
armonica
Patience (ver 2)
armonica
Patience
video guitarra
Patience (ver 2)
video guitarra
Descubre más canciones de Guns N´ Roses