Amor Amor, Gaytan Castro (tablatura) (ver 2)

Autor: Anónimo | 20940 visualizaciones

Amor amor de los gaytan castro esta los mas correcto
 que he podido espero sea de su agrado

e|--7-8-7-8—-7/12-12—10-10-10-8----8/12-12-11-12--12-14-15-14-12-15-12-7|
b|----------------------------------------------------------------------|
g|----------------------------------------------------------------------|
D|--7-8-7-8--7/12-12—10-10-10-8----8/12-12-11-12--12-14-15-14-12-15-12-7|
A|----------------------------------------------------------------------|
E|----------------------------------------------------------------------|




e|--7-8--7-8—-(--------7-)-7/12-12-10-9--10--8-(----8----)--|
b|--9-10-9-10—(--7-9-10--)-9/14-14-12-11-12-10-(--10-10--)--|
g|------------(-9--------)---------------------(-9-----9-)--|
D|----------------------------------------------------------|
A|----------------------------------------------------------|
E|----------------------------------------------------------|

e|---8/12-12-11-12--12-14-15-14-12-12/15-12-7-----|
b|--10/13-13-12-13--13-15-17-15-13-13/17-13-8-----|
g|------------------------------------------------|
D|------------------------------------------------|
A|------------------------------------------------|
E|------------------------------------------------|

e|-----------------------------------------------------------------|
b|--7-10--9-10-(-7-8-9-10-11-)-12-12-10--9-12-10-------------------|
g|--9-11-10-11-----------------12-12-12-10-12-12--------8-9-11-)---|
D|------------------------------------------------(-9-11-----------|
A|-----------------------------------------------------------------|
E|-----------------------------------------------------------------|

e|-------------------12------------------------------------------|
b|--8-8-10-12--14-15-12-12-12-12-10------------10--11-10-)-------|
g|--9-9-10-12--14-15----12-12-12-12--(-12-12-11--12--------------|
D|---------------------------------------------------------------|
A|---------------------------------------------------------------|
E|---------------------------------------------------------------|

e|-----------------------------------------------------------------|
b|--7-10--9-10-(-7-8-9-10-11-)-12-12-10--9-12-10-------------------|
g|--9-11-10-11-----------------12-12-12-10-12-12--------8-9-11-)---|
D|------------------------------------------------(-9-11-----------|
A|-----------------------------------------------------------------|
E|-----------------------------------------------------------------|

e|------------------12----------------(---------------------12-11-14-12)|
b|-8-8-10-12--14-15-12-12-12-12-10----(--------9--12-9-13-12-----------)|
g|-9-9-10-12--14-15----12-12-12-12-12-(-9-12-10-12---------------------)|
D|----------------------------------------------------------------------|
A|----------------------------------------------------------------------|
E|----------------------------------------------------------------------|

Amor amor que esta sucediendo……
…amor amor que te esta pasando
e|--------------------------------|
b|------7-8-----------------------|
g|--7-9-----7-9---7---------------|
D|--------------9---5--7-8-9------|
A|--------------------------------|
E|--------------------------------|

…porque te muestras tan indiferente
e|--/15-14-12-------------------------------|
b|-----------15-13-12-----------------------|
g|-------------------14-12-11---------------|
D|---------------------------14-12-10-9-----|
A|------------------------------------------|
E|------------------------------------------|

…nuevas vivencias nuevas lunas de miel
e|----11-14-12--11-12-13-14-11-12-----------|
b|--12--------------------------------------|
g|------------------------------------------|
D|------------------------------------------|
A|------------------------------------------|
E|------------------------------------------|

e|--------------------------------------------------------11-12-|
b|-12-13-14-15-12-13-10-12-13-12-10------------10-12-10-12------|
g|---------------------------------12-----11-12-----------------|
D|-----------------------------------13-14----------------------|
A|--------------------------------------------------------------|
E|--------------------------------------------------------------|

e|--12/14-14-11-12--12/14-14-11-12-(-----------10-)--|
b|---------------------------------(---10-12-13---)--|
g|---------------------------------(-12-----------)--|
D|---------------------------------------------------|
A|---------------------------------------------------|
E|---------------------------------------------------|
Pajpatapas piticuycuspa….
…llaquita taquin
e|---------------------------10-12----|
b|-------------------10-12-13---------|
g|---------9-10-11-12-----------------|
D|--9-10-12---------------------------|
A|------------------------------------|
E|------------------------------------|
Pajpatapas piticuycuspa…..
…llaquita taquin
e|-----------------------------------------|
b|-------10-12-10-12-10-11-12-13-14-15-----|
g|--11-12----------------------------------|
D|-----------------------------------------|
A|-----------------------------------------|
E|-----------------------------------------|

….yawar wajan yanan chincaptim
e|---------------------11-----11-12-----|
b|----10-12-14-10-12-14--12-14----------|
g|--12----------------------------------|
D|--------------------------------------|
A|--------------------------------------|
E|--------------------------------------|

Espero les guste cualquier duda o comentario a mi
correo fredy_gam@hotmail.com
Calificar esta versión:
Aviso: Este fichero es trabajo propio de su transcriptor y representa su interpretación personal de la canción. El material contenido en esta página es para exclusivo uso privado, por lo que se prohibe su reproducción o retransmisión, así como su uso para fines comerciales.
Más versiones de Amor Amor, Gaytan Castro
Amor Amor
acordes
Amor Amor
tablatura
Amor Amor (ver 2)
tablatura
Descubre más canciones de Gaytan Castro