Amor Amor, Gaytan Castro (tablatura)

Autor: Anónimo | 36132 visualizaciones

hola a todos esta tablatura es un poco tranca
practiquenla mucho algun comentario a cobi_a12@hotmail.com
pronto mandare toda la cancion




Riff1
e---------5-6
b-6-7-8-----


riff2
e-----------3--
b---2-3-5-----
g-4-----------


Intro:

e-7--8--7--8--12--12--10--9--10--8--12--12--11--12--14
b-------------------------------------------------------
g------------------------------------------------------
d-6--7--6--7--10--10---9--8---9--7--10--10---9--10--12-

e-15--12--12--15--12--7--
b-------------------------------
g-------------------------------
d-14--10--10--10--10--5—


e-7--8--7--8--12--12--10--9--10--8--12--12--11--12--14
b------------------------------------------------------
g-------------------------------------------------------
d-6--7--6--7--10--10---9--8---9--7--10--10---9--10--12-

e-15--12--12--15--12--7--
b-------------------------------
g-------------------------------
d-14--10--10--10--10--5—


           riff1                 riff2
e-4-5-4-5-|------|-7-7-5-3-7-5-|------|-3-3-5-7--9-10--12
b-6-7-6-7-|------|-8-8-7-5-8-7-|------|-5-5-7-8-10-11--12


e--12------12---------------
b--12--12--12--12--8-----
g------12------12--9-----
Calificar esta versión:
Aviso: Este fichero es trabajo propio de su transcriptor y representa su interpretación personal de la canción. El material contenido en esta página es para exclusivo uso privado, por lo que se prohibe su reproducción o retransmisión, así como su uso para fines comerciales.
Más versiones de Amor Amor, Gaytan Castro
Amor Amor
acordes
Amor Amor
tablatura
Amor Amor (ver 2)
tablatura
Descubre más canciones de Gaytan Castro