Amor Amor, Gaytan Castro (acordes)

Autor: hebert rojas | 53530 visualizaciones

dolammimimresi7sol


 e|0-1-0-1-5-5-3-2-3-1-------1-1-5-4-5-7-8-7-5-7-5-0--------
b|---------------------------------------------------------
g|---------------------------------------------------------
d|---------------------------------------------------------
A|---------------------------------------------------------
E|---------------------------------------------------------



e|-------------------------------3-3-5---------------------
b|-3-3-2-3---5-5-3-2-3-1---0-1-3-------5-5-3-2-3-1---------
g|-----------------------2---------------------------------
d|---------------------------------------------------------
A|---------------------------------------------------------
E|---------------------------------------------------------



e|-8-8-7-5-8-8-8-10-5--5-8-8h10-8-5-5-8-5-3-0--------------
b|---------------------------------------------------------
g|---------------------------------------------------------
d|---------------------------------------------------------
A|---------------------------------------------------------
E|---------------------------------------------------------



Mi    Lam        Mi      Lam     Do             Re   Sol 
Amor amor que esta sucediendo, amor amor que te esta pasando

Mi   Lam       Mi    Lam    Do               Re    Sol 
Amor amor porque te alejas, porque te muestras tan indiferente

Si7                 Sol Si7      Sol                        Si7 Mim
Porque matarme de esa manera, sabiendo que eres el aire que respiro

Si7                    Sol Si7   Sol                      Si7 Mim
Porque acebar años de ternura, de comprensión cariños y de besos


Amor amor quiero proponerte, nuevas vivencias nueva luna de miel
Amor amor salvemos lo nuestro, amor amor no me dejes morir
Tu eres mi luz tu eres mi alegria, tu eres mi fe mi unico consuelo
Amor amor salvemos lo nuestro, nueves vivencias nueva luna de miel.





FUGA
Do                                              Re  Sol 
Pajpatapas puticuycuspa yanan ripuptin llaquitas taquin  [BIS]

Sol                    Re  Sol                     Si7 Mim
Chaynan souqollay wañuywañuyta yawar wajan yanan chincaptin [bis]
 





Calificar esta versión:
Aviso: Este fichero es trabajo propio de su transcriptor y representa su interpretación personal de la canción. El material contenido en esta página es para exclusivo uso privado, por lo que se prohibe su reproducción o retransmisión, así como su uso para fines comerciales.
Más versiones de Amor Amor, Gaytan Castro
Amor Amor
acordes
Amor Amor
tablatura
Amor Amor (ver 2)
tablatura
Descubre más canciones de Gaytan Castro