Veneno Vil, Fobia (tablatura)

Autor: Anónimo | 28722 visualizaciones



Q onda, este mi primer cancion q saco para la cuerda según yo suena bien
Y bueno cualquier cosa mi e-mail es [email protected]



Intro

E||------------2-5-4-3-2-3----------2-5--4--3--2--7-|
B||----------2--------------------2-----------------|
G||*-------2--------------------2-------------------|
D||*-----4--------------------4---------------------|
A||-------------------------------------------------|
E||-------------------------------------------------|



-----------2-5-4-3-2-3-2h-3p-2p-0----------------------------||
---------2------------------------2h-3p-2p-0-----------------||
-------2-------------------------------------3h-4p-3p-0-----*|| X2
-----4--------------------------------------------------4-0-*||
-------------------------------------------------------------||
-------------------------------------------------------------||


VERSO

1.- Dicen q no conocio el amor dicen q tiene maldito el corazon
2.- dicen q es una mujer fatal un paso en falso y t vuelve de cristal
3.- como la fuerza de un huracán y el apetito d cualquier predador animal
4.- con la ponzoña de un alacran con la inocencia de un ni~o y bajo
          la mano un pu~al

-------2----2------2-x-x-2--|------2----2------2-x-x-2--|
-------2----2------2-x-x-2--|------2----2------2-x-x-2--|
*------2----2------2-x-x-2--|------2----2------2-x-x-2--|
*------4----4------4-x-x-4--|------4----4------4-x-x-4--|
----------------------------|---------------------------|
----------------------------|---------------------------|


                         1.- q no tiene salvacion
                         2.-     ____________________________
                         3.-  __________________________________
                         4.-mira en sus ojos y juega su juego y veras

-5----5------5-x-x-5--|------5----5------5-x-x-5---|-------------|
-5----5------5-x-x-5--|------5----5------5-x-x-5---|-------------|
-6----6------6-x-x-6--|------6----6------6-x-x-6--*|-------------|
-7----7------7-x-x-7--|------7----7------7-x-x-7--*|-------------|
----------------------|----------------------------|-----4-------|
----------------------|----------------------------|-----2-------|






CORO


|------------------------------------|-----------------------------------|
|------------------------------------|-----------------------------------|
|*-----------------------------------|-----------------------------------|
|*-----------------------------------|-----------------------------------|
|---4--4--7--7--4--4--7--L--7--6--7--|--4--4--7--7--4--4--7--L--7--6--7--|
|---2--2--5--5--2--2--5--L--5--4--5--|--2--2--5--5--2--2--5--L--5--4--5--|




                                      eres veneno vil

-----------------------------------|---------------------||
-----------------------------------|---------------------||
-----------------------------------|--------------------*||
-----------------------------------|--4--------7--------*||
--4--4--7--7--4--4--7--L--7--6--7--|--2--------5---------||
--2--2--5--5--2--2--5--L--5--4--5--|---------------------||



se repite una vez el intro

-----------2-5-4-3-2-3----------2-5--4--3--2--7-|
---------2--------------------2-----------------|
-------2--------------------2-------------------|
-----4--------------------4---------------------|
------------------------------------------------|
------------------------------------------------|


-----------2-5-4-3-2-3-2h-3p-2p-0---------------------------|
---------2------------------------2h-3p-2p-0----------------|
-------2-------------------------------------3h-4p-3p-0-----|
-----4--------------------------------------------------4-0-|
------------------------------------------------------------|
------------------------------------------------------------|
 VERSO

1.- dicen que es como una maquina nada se salva de una hembra tan voraz
2.- dicen que es como una vibora beso tras beso propaga su maldad
2.- _____________________________________________________________

|-------2----2------2-x-x-2--|------2----2------2-x-x-2--|
|-------2----2------2-x-x-2--|------2----2------2-x-x-2--|
|*------2----2------2-x-x-2--|------2----2------2-x-x-2--|
|*------4----4------4-x-x-4--|------4----4------4-x-x-4--|
|----------------------------|---------------------------|
|----------------------------|---------------------------|




1.- ___________________________________________________
2.- __________________________________________________
3.-                         mira sus ojos y juega su juego y veras
------5----5------5-x-x-5--|------5----5------5-x-x-5---||-----------|
------5----5------5-x-x-5--|------5----5------5-x-x-5---||-----------|
------6----6------6-x-x-6--|------6----6------6-x-x-6--*||-----------|
------7----7------7-x-x-7--|------7----7------7-x-x-7--*||-----------|
---------------------------|----------------------------||-----4-----|
---------------------------|----------------------------||-----2-----|

CORO


|------------------------------------|-----------------------------------|
|------------------------------------|-----------------------------------|
|*-----------------------------------|-----------------------------------|
|*-----------------------------------|-----------------------------------|
|---4--4--7--7--4--4--7--L--7--6--7--|--4--4--7--7--4--4--7--L--7--6--7--|
|---2--2--5--5--2--2--5--L--5--4--5--|--2--2--5--5--2--2--5--L--5--4--5--|

                                    eres veneno vil
-----------------------------------|---------------------||
-----------------------------------|---------------------||
-----------------------------------|--------------------*||
-----------------------------------|--4--------7--------*||
--4--4--7--7--4--4--7--L--7--6--7--|--2--------5---------||
--2--2--5--5--2--2--5--L--5--4--5--|---------------------||

aquí entra el riff 1 con otra guitarra mientras se toca hasta los #

------------------------------|-----------------------------------|
------------------------------|-----------------------------------|
------------------------------|-----------------------------------|
------------------------------|-----------------------------------|
--4--4-4-L-4-4--4--4-4-L-4-4--|--7--7-7-L-7-7--6s-7-7-6s-7-7-6s-7-|
--2--2-2-L-2-2--2--2-2-L-2-2--|--5--5-5-L-5-5--4s-5-5-4s-5-5-4s-5-|



------------------------------|-----------------------------------|
------------------------------|-----------------------------------|
------------------------------|-----------------------------------|
------------------------------|--7--7-7-L-7-7--6s-7-7-6s-7-7-6s-7-|
--4--4-4-L-4-4--4--4-4-L-4-4--|--5--5-5-L-5-5--4s-5-5-4s-5-5-4s-5-|
--2--2-2-L-2-2--2--2-2-L-2-2--|-----------------------------------|


------------------------------|-----------------------------------|
------------------------------|-----------------------------------|
------------------------------|-----------------------------------|
------------------------------|-----------------------------------|
--4--4-4-L-4-4--4--4-4-L-4-4--|--7--7-7-L-7-7--6s-7-7-6s-7-7-6s-7-|
--2--2-2-L-2-2--2--2-2-L-2-2--|--5--5-5-L-5-5--4s-5-5-4s-5-5-4s-5-|




-----------------------------------|------------------------------|
-----------------------------------|------------------------------|
-----------------------------------|------------------------------|
--7--7-7-L-7-7--6s-7-7-6s-7-7-6s-7-|--4--4-4-L-4-4--4--4-4-L-4-4--|
--5--5-5-L-5-5--4s-5-5-4s-5-5-4s-5-|--2--2-2-L-2-2--2--2-2-L-2-2--|
-----------------------------------|------------------------------|


------------------------------|-----------------------------------|
------------------------------|-----------------------------------|
------------------------------|-----------------------------------|
------------------------------|-----------------------------------|
--4--4-4-L-4-4--4--4-4-L-4-4--|--7--7-7-L-7-7--6s-7-7-6s-7-7-6s-7-|
--2--2-2-L-2-2--2--2-2-L-2-2--|--5--5-5-L-5-5--4s-5-5-4s-5-5-4s-5-|


-----------------------------------|------------------------------|#
-----------------------------------|------------------------------|#
-----------------------------------|------------------------------|#
--7--7-7-L-7-7--6s-7-7-6s-7-7-6s-7-|--4--4-4-L-4-4--4--4-4-L-4-4--|#
--5--5-5-L-5-5--4s-5-5-4s-5-5-4s-5-|--2--2-2-L-2-2--2--2-2-L-2-2--|#
-----------------------------------|------------------------------|#


-----------2-5-4-3-2-3----------2-5--4--3--2--7-|
---------2--------------------2-----------------|
-------2--------------------2-------------------|
-----4--------------------4---------------------|
------------------------------------------------|
------------------------------------------------|


-----------2-5-4-3-2-3-2h-3p-2p-0---------------------------|
---------2------------------------2h-3p-2p-0----------------|
-------2-------------------------------------3h-4p-3p-0-----|
-----4--------------------------------------------------4-0-|
------------------------------------------------------------|
------------------------------------------------------------|



-----------2-5-4-3-2-3----------2-5--4--3--2--7-|
---------2--------------------2-----------------|
-------2--------------------2-------------------|
-----4--------------------4---------------------|
------------------------------------------------|
------------------------------------------------|


-----------2-5-4-3-2-3-2h-3p-2p-0---------------------------|
---------2------------------------2h-3p-2p-0----------------|
-------2-------------------------------------3h-4p-3p-0-----|
-----4--------------------------------------------------4-0-|
------------------------------------------------------------|
------------------------------------------------------------|

VERSO

      dicen q no conocio el amor dicen q...
---------------------|--------------------|------5----5------5-x-x-5--|
---------------------|--------------------|------5----5------5-x-x-5--|
---------------------|--------------------|------6----6------6-x-x-6--|
---------------------|--------------------|------7----7------7-x-x-7--|
-----4---------------|--------------------|---------------------------|
-----2---------------|--------------------|---------------------------|

q no tiene salvacion          1.- dicen q es una mujer fatal
                              2.- como la fuerza de un huracán
                              3.- una catastrofe natural
                              4.- _____________________
------5----5------5-x-x-5--||-------2----2------2-x-x-2--|
------5----5------5-x-x-5--||-------2----2------2-x-x-2--|
------6----6------6-x-x-6--||*------2----2------2-x-x-2--|
------7----7------7-x-x-7--||*------4----4------4-x-x-4--|
---------------------------||----------------------------|
---------------------------||----------------------------|

1.- un paso en falso y t vuelve de cristal
2.- y el apetito q tiene cualquier predaro animal
3.- tiene los ojos d fuego y corazon de metal
4.- ___________________________________________
----------2----2------2-x-x-2--|------5----5------5-x-x-5--|
----------2----2------2-x-x-2--|------5----5------5-x-x-5--|
----------2----2------2-x-x-2--|------6----6------6-x-x-6--|
----------4----4------4-x-x-4--|------7----7------7-x-x-7--|
-------------------------------|---------------------------|
-------------------------------|---------------------------|

4.- mira sus ojos y juega su juego y veraz
------5----5------5-x-x-5---||---------------------|
------5----5------5-x-x-5---||---------------------|
------6----6------6-x-x-6--*||---------------------|
------7----7------7-x-x-7--*||---------------------|
----------------------------||-----4---------------|
----------------------------||-----2---------------|

CORO

|------------------------------------|-----------------------------------|
|------------------------------------|-----------------------------------|
|*-----------------------------------|-----------------------------------|
|*-----------------------------------|-----------------------------------|
|---4--4--7--7--4--4--7--L--7--6--7--|--4--4--7--7--4--4--7--L--7--6--7--|
|---2--2--5--5--2--2--5--L--5--4--5--|--2--2--5--5--2--2--5--L--5--4--5--|


                                    eres veneno vil
-----------------------------------|---------------------||
-----------------------------------|---------------------||
-----------------------------------|--------------------*||
-----------------------------------|--4--------7--------*||
--4--4--7--7--4--4--7--L--7--6--7--|--2--------5---------||
--2--2--5--5--2--2--5--L--5--4--5--|---------------------||


ENTRA RIFF FINAL
------------------------------|-----------------------------------|
------------------------------|-----------------------------------|
------------------------------|-----------------------------------|
------------------------------|-----------------------------------|
--4--4-4-L-4-4--4--4-4-L-4-4--|--7--7-7-L-7-7--6s-7-7-6s-7-7-6s-7-|
--2--2-2-L-2-2--2--2-2-L-2-2--|--5--5-5-L-5-5--4s-5-5-4s-5-5-4s-5-|


------------------------------|-----------------------------------|
------------------------------|-----------------------------------|
------------------------------|-----------------------------------|
------------------------------|--7--7-7-L-7-7--6s-7-7-6s-7-7-6s-7-|
--4--4-4-L-4-4--4--4-4-L-4-4--|--5--5-5-L-5-5--4s-5-5-4s-5-5-4s-5-|
--2--2-2-L-2-2--2--2-2-L-2-2--|-----------------------------------|


------------------------------|-----------------------------------|
------------------------------|-----------------------------------|
------------------------------|-----------------------------------|
------------------------------|-----------------------------------|
--4--4-4-L-4-4--4--4-4-L-4-4--|--7--7-7-L-7-7--6s-7-7-6s-7-7-6s-7-|
--2--2-2-L-2-2--2--2-2-L-2-2--|--5--5-5-L-5-5--4s-5-5-4s-5-5-4s-5-|


-----------------------------------|------------------------------|
-----------------------------------|------------------------------|
-----------------------------------|------------------------------|
--7--7-7-L-7-7--6s-7-7-6s-7-7-6s-7-|--4--4-4-L-4-4--4--4-4-L-4-4--|
--5--5-5-L-5-5--4s-5-5-4s-5-5-4s-5-|--2--2-2-L-2-2--2--2-2-L-2-2--|
-----------------------------------|------------------------------|

eres veneno vil                       y tu mordida es mortal
------------------------------|-----------------------------------|
------------------------------|-----------------------------------|
------------------------------|-----------------------------------|
------------------------------|-----------------------------------|
--4--4-4-L-4-4--4--4-4-L-4-4--|--7--7-7-L-7-7--6s-7-7-6s-7-7-6s-7-|
--2--2-2-L-2-2--2--2-2-L-2-2--|--5--5-5-L-5-5--4s-5-5-4s-5-5-4s-5-|


Tras ese vientra anomal                        eres veneno vil
------------------------------|-----------------------------------|
------------------------------|-----------------------------------|
------------------------------|-----------------------------------|
------------------------------|--7--7-7-L-7-7--6s-7-7-6s-7-7-6s-7-|
--4--4-4-L-4-4--4--4-4-L-4-4--|--5--5-5-L-5-5--4s-5-5-4s-5-5-4s-5-|
--2--2-2-L-2-2--2--2-2-L-2-2--|-----------------------------------|


eres veneno vil                          de mordedura fatal
------------------------------|-----------------------------------|
------------------------------|-----------------------------------|
------------------------------|-----------------------------------|
------------------------------|-----------------------------------|
--4--4-4-L-4-4--4--4-4-L-4-4--|--7--7-7-L-7-7--6s-7-7-6s-7-7-6s-7-|
--2--2-2-L-2-2--2--2-2-L-2-2--|--5--5-5-L-5-5--4s-5-5-4s-5-5-4s-5-|

tras su sonrisa animal                   eres veneno vil
-----------------------------------|------------------------------|
-----------------------------------|------------------------------|
-----------------------------------|------------------------------|
--7--7-7-L-7-7--6s-7-7-6s-7-7-6s-7-|--4--4-4-L-4-4--4--4-4-L-4-4--|
--5--5-5-L-5-5--4s-5-5-4s-5-5-4s-5-|--2--2-2-L-2-2--2--2-2-L-2-2--|
-----------------------------------|------------------------------|

-----------2-5-4-3-2-3----------2-5--4--3--2--7-|
---------2--------------------2-----------------|
-------2--------------------2-------------------|
-----4--------------------4---------------------|
------------------------------------------------|
------------------------------------------------|


-----------2-5-4-3-2-3-2h-3p-2p-0---------------------------|
---------2------------------------2h-3p-2p-0----------------|
-------2-------------------------------------3h-4p-3p-0-----|
-----4--------------------------------------------------4-0-|
------------------------------------------------------------|
------------------------------------------------------------|


---------------------|
---------------------|
---------------------|
---------------------|
-----4---------------|
-----2---------------|

___________________________________________________________________________

RIFF 1

||-------------------------|-------------------|
||-------------------------|-------------------|
||-------------------------|-------------------|
||--4----------------------|-------------------|
||------4---------2--0-2---|--4----------------|
||-------------------------|-------------------|


                            ^
-------------------------|-------------------|-------------------------|
-------------------------|--3----------------|-------------------------|
-------------------------|--2----------------|-------------------------|
--4----------------------|-------------------|--4----------------------|
------4---------2--0-2---|-------------------|------4---------2--0-2---|
-------------------------|-------------------|-------------------------|


-------------------|-------------------------|-----------------------|
-------------------|-------------------------|--------------0--------|
-------------------|-------------------------|-----------------------|
-------------------|--4----------------------|-----------4-----------|
--4----------------|------5---------4--5-4---|------5----------------|
-------------------|-------------------------|--7--------------------|


-------------------------|-------------------|-------------------------|
-------------------------|-------------------|-------------------------|
-------------------------|-------------------|-------------------------|
--4----------------------|-------------------|--4----------------------|
------4---------2--0-2---|--4----------------|------5---------4--2-0---|
-------------------------|-------------------|-------------------------|


-------------------------|-------------------|
--3---0------------------|-------------------|
-------------------------|-------------------|
-------------------------|-------------------|
----------------2--0-----|-------------------|
---------------------4---|--2----------------|

_______________________________________________________________________
RIFF FINAL-----------------------------------------------------------------


-------------------|--------------------||-------------------------|
-------------------|--------------------||-------------------------|
-------------------|-------------------*||-------------------------|
-------------------|-------------------*||--4----------------------|
-------------------|--------------------||------4---------2--0-2---|
-------------------|--------------------||-------------------------|

                                                ^
-------------------|-------------------------|-------------------|
-------------------|-------------------------|--3----------------|
-------------------|-------------------------|--2----------------|
-------------------|--4----------------------|-------------------|
--4----------------|------4-L-------2--0-2---|-------------------|
-------------------|-------------------------|-------------------|


-------------------------|-------------------|-------------------------|
-------------------------|-------------------|-------------------------|
-------------------------|-------------------|-------------------------|
--4----------------------|-------------------|--4----------------------|
------4-L-------2--0-2---|--4----------------|------5-L-------4--5-4---|
-------------------------|-------------------|-------------------------|


---------------------------|-------------------------|-------------------|
--------------0------------|-------------------------|-------------------|
---------------------------|-------------------------|-------------------|
-----------4---------------|--4----------------------|-------------------|
------5-L----------4-2-0---|------4-L-------2--0-2---|--4----------------|
--7----------------------4-|-------------------------|-------------------|
                            ^
-------------------------|-------------------|-------------------------|
-------------------------|--3----------------|-------------------------|
-------------------------|--2----------------|-------------------------|
--4----------------------|-------------------|--4----------------------|
------4-L-------2--0-2---|-------------------|------4-L-------2--0-2---|
-------------------------|-------------------|-------------------------|


-------------------|-------------------------|---------------------------|
-------------------|-------------------------|--------------0------------|
-------------------|-------------------------|---------------------------|
-------------------|--4----------------------|-----------4---------------|
--4----------------|------5-L-------4--5-4---|------5-L----------4-2-0---|
-------------------|-------------------------|--7----------------------4-|



-------------------|
-------------------|
-------------------|
-------------------|
-------------------|
--2----------------|





Calificar esta versión:
Aviso: Este fichero es trabajo propio de su transcriptor y representa su interpretación personal de la canción. El material contenido en esta página es para exclusivo uso privado, por lo que se prohibe su reproducción o retransmisión, así como su uso para fines comerciales.
Más versiones de Veneno Vil, Fobia
Veneno Vil
acordes
Veneno Vil
tablatura
Veneno Vil (ver 2)
tablatura
Veneno Vil
bajo
Descubre más canciones de Fobia