Veneno Vil, Fobia (bajo)

Autor: Anónimo | 43213 visualizaciones



Intro

      1
|---------------|
|---------------| x 8
|------4--2-----|
|--2------------|

Verso
       2

 |------------|
 |------------|
 |-----4--2---| x4
 |-2----------|

  Verso
        3
 |-------------|
 |-------------|
 |-----4--7----|x4
 |--5----------|

(la misma secuencia)
                    2
Dicen q no conocio el amor dicen q tiene maldito
                 3
El corazon que no tiene salvacion
                   2
dicen que es una mujer fatal  un paso en falso
                    3
y te vuelves de cristal

  2
como la fuerza de un huracan y el apetito que tiene
                      3
cualquier predador animal

  2
con la ponzoña de un alacran con la inocencia de un niño
                    3
y bajo la manga un puñal


mira sus ojos y juega en su juego y veras...


Coro
      Uh Uh Uuuh Uuuh

|------------------|
|------------------|
|------------------|x6
|-2-222-4-5--------|

Eres veneno vil

|--------------------|
|--------------------|
|-222222--55555555---|
|--------------------|

          2
Dicen que es como una máquina
                                3
nada de salva de una hembra tan voraz
2
dicen que es como una víbora
                             3
beso tras beso propaga su maldad

Mira en sus ojos y juega en su juego y verás


Coro
      Uh Uh Uuuh Uuuh

|------------------|
|------------------|
|------------------|x6
|-2-222-4-5--------|

Eres veneno vil

|--------------------|
|--------------------|
|-222222--55555555---|
|--------------------|

solo

|-----------------------------------------------------|
|-----------------------------------------------------|
|--------------------------22222222--555555-545454----| x3
|-22222222--555555-454545-----------------------------|

        1
|---------------|
|---------------| x 8
|------4--2-----|
|--2------------|

(silencio)
Dicen que no conocio el amor...
                              3
dicen que tiene maldito el corazón

que no tiene salvación
2
dicen que es una mujer fatal
                             3
un paso en falso y te vuelve de cristal
2
como la fuerza de un huracán
                                         3
y el apetito que tiene cualquier predador animal
2
una catástrofe natural
                             3
tiene los ojos de fuego y corazón de metal

Mira en sus ojos y juega en su juego y verás

Coro
      Uh Uh Uuuh Uuuh

|------------------|
|------------------|
|------------------|x6
|-2-222-4-5--------|

Eres veneno vil

|--------------------|
|--------------------|
|-222222--55555555---|
|--------------------|

solo

|-----------------------------------------------------|
|-----------------------------------------------------|
|--------------------------22222222--555555-545454----| x4
|-22222222--555555-454545-----------------------------|

final

|---------------|
|---------------| x 3
|------4--2-----|
|--2------------|

|---------------|
|---------------|
|------4--2-----|
|--2---------2--|


dudas comentarios... [email protected],,,, espero les guste esta
correcion , no se ustedes pero yo creo q esta mas completa!!! chequen bien
los ritmos y veran q si la tocan xido, saludos a mario y diana buenos
musicos tambien!!!! XD





Calificar esta versión:
Aviso: Este fichero es trabajo propio de su transcriptor y representa su interpretación personal de la canción. El material contenido en esta página es para exclusivo uso privado, por lo que se prohibe su reproducción o retransmisión, así como su uso para fines comerciales.
Más versiones de Veneno Vil, Fobia
Veneno Vil
acordes
Veneno Vil
tablatura
Veneno Vil (ver 2)
tablatura
Veneno Vil
bajo
Descubre más canciones de Fobia