Veneno Vil, Fobia (acordes)

Autor: djkikeone | 34142 visualizaciones

ab5bmdfsos5fsosm


F#m
E|---5-4-3-2-3-|---5-4-3-2-7-|---5-4-3-2-3-|--3-2-0-------------------|
B|-------------|-------------|-------------|--------3-2-0-------------|
G|-------------|-------------|-------------|--------------4-3-0-------|
D|-------------|-------------|-------------|--------------------4-3-0-|x2
A|-------------|-------------|-------------|--------------------------|
E|-------------|-------------|-------------|--------------------------|
F#m
  Dicen que no conocio el amor
                                  A 
  dicen que tiene maldito el corazón

  que no tiene salvación
  F#m
  dicen que es una mujer fatal
                                     A 
  un paso en falso y te vuelves de cristal

  F#m
  como la fuerza de un huracán
                                         A 
  y el apetito que tiene cualquier predador animal, uuuuh...
  F#m
  con la ponzoña de un alacran
                                         A 
  con la inocencia de un niño y bajo la mano un puñal

                                         F#m
  Mira en sus ojos y juega su juego y veras...

 F#m/A
  Uh, Uh, Uh
 Bm       D
  Eres veneno vil. [x2]

F#m

E|---5-4-3-2-3-|---5-4-3-2-7-|---5-4-3-2-3-|--3-2-0-------------------|
B|-------------|-------------|-------------|--------3-2-0-------------|
G|-------------|-------------|-------------|--------------4-3-0-------|
D|-------------|-------------|-------------|--------------------4-3-0-|
A|-------------|-------------|-------------|--------------------------|
E|-------------|-------------|-------------|--------------------------|


  F#m
  dicen que es como una maquina
                                    A 
  nada se salva de una hembra tan voraz
  F#m
  dicen que es como una vibora
                               A 
  beso tras beso propaga su maldad
                                         F#m
  mira sus ojos y juega en su juego y veras...

F#m/A
  Uh, Uh, Uh
 Bm       D
  Eres veneno vil. [x2]

SOLO
----F#5---------------G#5/A5- F#5----------------C#5/D5
E||-------------------|--------------------2----||
B||-------------------|--------------------2----||
G||-------------------|--------------------4----||
D||--4----------------|--4-----------------4----||
A||----4--2--0--2--4--|----4--2--0--2--4---2----||
E||-------------------|-------------------------||

----F#5-----------G#5/A5 C#5/D5---------B5----
E||-------------------|-------------------------||
B||-------------------|-------------------------||
G||-------------------|---------------------4---||
D||--4----------------|--4--0----0------0-4-----||
A||----4--2--0--2--4--|--------4---4--2---------||
E||-------------------|-------------------------||


------F#5---------G#5/A5- C#5/D5------------B5--
E||-------------------|-------------------------||
B||-------------------|-------------------------||
G||-------------------|-------------------------||
D||--4----------------|--4--0-------------------||
A||----4--2--0--2--4--|--------4-2-0-2--2-0-2---||
E||-------------------|-----------------------2-||

F#m

E|----5-4-3-2-3-|---5-4-3-2-7-|----5-4-3-2-3-|--3-2-0-------------------|
B|--------------|-------------|--------------|--------3-2-0-------------|
G|--------------|-------------|--------------|--------------4-3-0-------|
D|--------------|-------------|--------------|--------------------4-3-0-|
A|--------------|-------------|--------------|--------------------------|
E|--------------|-------------|--------------|--------------------------|

  Dicen que no conocio el amor
                                  A 
  dicen que tiene maldito el corazon

  que no tiene salvacion
  F#m
  dicen que es una mujer fatal
                                     A 
  un paso en falso y te vuelves de cristal  ooooh...

  F#m
  como la fuerza de un huracan
                                         A 
  y el apetito que tiene cualquier predador animal  ooooh...
  F#m
  una catastrofe natural
                                 A 
  tiene los ojos de fuego y corazon de metal

  Mira en sus ojos y juegas su juego y veras...

F#m/A
  Uh, Uh, Uh
 Bm       D
  Eres veneno vil. [x2]


[después se vuelve a repetir el solo
nada mas que ahora se va a escuchar
con este pedazo de letra sobre el mismo]

  Eres veneno vil y tu mordida es mortal
  tras de ese vientre animal
  eres veneno vil de mordedura fatal
  tras de ese vientre animal
  eres veneno vil

[disfruten la rola y practíquenla]

 





Comentarios del colaborador: saludoas atoda la bandera

Calificar esta versión:
Aviso: Este fichero es trabajo propio de su transcriptor y representa su interpretación personal de la canción. El material contenido en esta página es para exclusivo uso privado, por lo que se prohibe su reproducción o retransmisión, así como su uso para fines comerciales.
Más versiones de Veneno Vil, Fobia
Veneno Vil
acordes
Veneno Vil
tablatura
Veneno Vil (ver 2)
tablatura
Veneno Vil
bajo
Descubre más canciones de Fobia