Infinito Dios (nuevas Fuerzas Tendrán), En Espiritu Y En Verdad (tablatura) (ver 4)

Autor: Anónimo | 19549 visualizaciones

INTRO (x2)

G|--------0-0-0--------------------------------------------|--------|
D|----0h2-------2--3-3--3-2---0-2-3-3--3-2---0-2-3-3--3-2--|-2h3p2--|
A|-3------------------------3--------------3--------------3|-------3|
E|---------------------------------------------------------|--------|

COROS (rasgueos)

C          F          Am         F

B|-13-|    B|-13-|    B|-10-|    B|-13-|
G|-12-|    G|-10-|    G|-9--|    G|-10-|
D|-10-|    D|-10-|    D|-7--|    D|-10-|

SOLO 1

(min. 2:34)
e|-------------------------------------------|
B|-----13-13---------------------------------|
G|-12---------12-12--14-14-------------------|
D|---------------------------12--12h14-14-14-| (x3)

(min. 2:47)
e|----------------------12-12--------------------------------|
B|----13----13----13-15---------12---12h13p12h13p12h13p12...-|
G|-12----12----12--------------------------------------------|


SOLO 2

(min. 4:42)
e|-----------12-13-13--12-------------------|
B|----13-15----------------15--13-----------|
G|-14------------------------------14v--14v-|

(min. 4:47)
e|-------12-13--12-------------------|
B|-13-15------------15--13-----------|
G|--------------------------14v--14v-|

FINAL

(min. 4:52)
e|----------------------12-12-|-----------------|
B|----13----13----13-15-------|-13--12------13v-|
G|-12----12----12-------------|---------12------|


Dudas, sugerencias y peticiones a: saviour_king@msn.com

DLB.
Calificar esta versión:
Aviso: Este fichero es trabajo propio de su transcriptor y representa su interpretación personal de la canción. El material contenido en esta página es para exclusivo uso privado, por lo que se prohibe su reproducción o retransmisión, así como su uso para fines comerciales.