Infinito Dios (nuevas Fuerzas Tendrán), En Espiritu Y En Verdad (tablatura)

Autor: Anónimo | 37316 visualizaciones

INTRO:
e-------------------------------------------3-----
B-----------------------------------------3-------
G-------------------------------------------------
D---5/5--3-2-3---3-2-0---0-2-3---3-2-0------------
A-3--------------------3----------------3---------
E-------------------------------------------------(X2)

VERSO 1:
     C
// NUEVAS FUERZAS TENDRAN A LOS QUE ESPERAN EN DIOS

                         (un toque en G )
ESPERAREMOS EN DIOS, ESPERAREMOS //

   F    G      Am    G     Cm F    C-F   G Am    G
DIOS REINARA POR SIEMPRE, NUESTRO FUERTE LIBERTADOR


CORO:

C                F                  Am
ERES EL INFINITO DIOS, EL INFINITO DIOS

                F
TU NO DESMAYAS NUNCA FALLAS.


e-------------------------------------------3-----
B-----------------------------------------3-------
G-------------------------------------------------
D---5/5--3-2-3---3-2-0---0-2-3---3-2-0------------
A-3--------------------3----------------3---------
E-------------------------------------------------(X2)


     C
// NUEVAS FUERZAS TENDRAN A LOS QUE ESPERAN EN DIOS

                         (un toque en G )
ESPERAREMOS EN DIOS, ESPERAREMOS //

     F    G      Am    G   Cm F    C-F   G Am    G
DIOS REINARA POR SIEMPRE, NUESTRO FUERTE LIBERTADOR


CORO:

C                F                  Am
ERES EL INFINITO DIOS, EL INFINITO DIOS

                F           C                  F
TU NO DESMAYAS NUNCA FALLAS, DEFENSOR DE LOS DEBILES

                Am                  F              C
NUESTRO CONSOLADOR, NOS LEVANTASTE EN ALAS DE AGUILA

SOLO1:

e----------------------------------------------------
B-13/13--8-10-------13/13--8-10------13/13--8-10-----
G-------------7-9---------------7-9--------------7-9-

e----------------------12-12----------------------
B-12h13-12h13-12h13-15----------12-13---------------
G----------------------------14------------------------

SOLO2:

e------12-13-12------------12-13-12------------------------
B-13-15--------15-13--13-15---------15-13---12h13-12h13----
G-------------------14--------------------14---------------

e----------12-13-12----------------------------------------
B-12h13-15----------15----13-------------------------------
G----------------------14----------------------------------

ezpero qe lez zirva ahora esta ezta zin errorez hehe!!!

Les mando un saludo a todos los hermanos de la iglesia
"Peniel" en Atizapan de zaragoza, Edo mex.
y en especial a los del grupo de alanza.

Espero ke les sirva y ke Dios los bendiga mucho.
(misael_monosk8guitar@hotmail.com)
Calificar esta versión:
Aviso: Este fichero es trabajo propio de su transcriptor y representa su interpretación personal de la canción. El material contenido en esta página es para exclusivo uso privado, por lo que se prohibe su reproducción o retransmisión, así como su uso para fines comerciales.