Infinito Dios (nuevas Fuerzas Tendrán), En Espiritu Y En Verdad (tablatura) (ver 3)

Autor: Anónimo | 15803 visualizaciones

INTRO:
e-----------------------------------------------------3--
B----------------------------------------------------1---
G-------0-0-----------------------------------------0----
D---0h2-------2-3-3-3-2---0-2-3-3-3-2---0-2-3-3-3-2------
A-3---------3-----------3-------------3------------3-----
E-------------------------------------------------------- X2

VERSO 1:
   C                   Cadd11        C         Cadd11
// NUEVAS FUERZAS TENDRAN  LOS QUE ESPERAN EN DIOS
        C         Cadd11
   ESPERAREMOS EN DIOS, ESPERAREMOS //
C    F  C  F  G   Am   G  C     F  C   F G  Am    G
DIOS REINARA POR SIEMPRE, NUESTRO FUERTE LIBERTADOR



CORO:

C                F                  Am
ERES EL INFINITO DIOS, EL INFINITO DIOS

               F G/F Fmaj7
TU NO DESMAYAS NUNCA FALLAS.


e----------------------------------------------------3--
B---------------------------------------------------1---
G-------0-0----------------------------------------0----
D---0h2-------2-3-3-3-2---0-2-3-3-3-2---0-2-3-3-3-------
A-3---------3-----------3-------------3-----------3-----
E-------------------------------------------------------


   C                   Cadd11       C          Cadd11
// NUEVAS FUERZAS TENDRAN  LOS QUE ESPERAN EN DIOS
        C         Cadd11
   ESPERAREMOS EN DIOS, ESPERAREMOS //
C    F  C  F  G   Am   G  C     F  C   F G  Am    G
DIOS REINARA POR SIEMPRE, NUESTRO FUERTE LIBERTADOR


C    F  C  F  G   Am   G  C     F  C   F G  Am    G
DIOS REINARA POR SIEMPRE, NUESTRO FUERTE LIBERTADOR


CORO:

C                F                  Am
ERES EL INFINITO DIOS, EL INFINITO DIOS

                F G/F Fmaj7 C                      F
TU NO DESMAYAS NUNCA FALLAS,  DEFENSOR DE LOS DEBILES

                Am                  F G/F Fmaj7 C
NUESTRO CONSOLADOR, NOS LEVANTASTE EN ALAS DE AGUILA


=SOLO=
C  F  Am  F  G/F  Fmaj7  C
e---------------------------------------
B---13-13-13--------10-10-10------------
G-12--------12-12-12--------7-7-7s9-9-9- x3

e---------------------------------------------------------
B---11--11--11-15-17-18-11-12-(12)-12h13-12h13-12h13-12h13
G-12--12--12----------------------------------------------


Aquí solo se escucha la voz

//DIOS REINARA POR SIEMPRE, NUESTRO FUERTE LIBERTADOR//


  C                F                  Am
//ERES EL INFINITO DIOS, EL INFINITO DIOS

                F G/F Fmaj7 C                      F
TU NO DESMAYAS NUNCA FALLAS,  DEFENSOR DE LOS DEBILES

                Am                  F G/F Fmaj7 C
NUESTRO CONSOLADOR, NOS LEVANTASTE EN ALAS DE AGUILA//


=OUTRO=
C             F                Am    F  G/F  Fmaj7  C
  Tú eres Infinito, Tú eres Infinito
e|---------
B|13----13-
G|12-12-12- <<Se repite varias veces despues va:

e|--------------------------------    -------------------------------
B|13-15-17-18-17-15-13-10-10-10-10    --13--13-13-15-17-18--------13~
G|-------------------------------- x2 12--12--12---------17-16-12~12~

Y bueno eso es todo, es una cancion bastante sencilla.
En los versos PUEDEN hacer los adornos con Cadd11 que como
pueden ver es solo poner el dedo meñique en el 3er traste.

Cadd11
E-0
B-1
G-0
D-3
A-3
E-0

El Am toquenlo de esta manera, verán que se escucha mejor:
E-5
B-5
G-5
D-7
A-7
E-5



s=Slide
h=Hammer On
()= Opcional

Espero les sirva, Dios los Bendiga.
Calificar esta versión:
Aviso: Este fichero es trabajo propio de su transcriptor y representa su interpretación personal de la canción. El material contenido en esta página es para exclusivo uso privado, por lo que se prohibe su reproducción o retransmisión, así como su uso para fines comerciales.