Juanita, El Peru Criollo (tablatura) (ver 2)

Autor: Anónimo | 16022 visualizaciones

Introducción:

E|--11-11-11-11-11-11--------|-11-11------------—--------
B|--11-11-11-11-11-11-11-----|-11-11-11-11-9--7----------
G|---------------------------|-------11-11-10-8----------
D|---------------------------|---------------------------
A|---------------------------|---------------------------
E|---------------------------|---------------------------


E|--11-11-11-11-11-14-11--|-11-11------------------------
B|--11-11-11-11-11-14-11--|-11-11-11-11-9--7-------------
G|------------------------|-------11-11-10-8-------------
D|------------------------|------------------------------
A|------------------------|------------------------------
E|------------------------|------------------------------

E|------1--4-3-4-1------1-4-3-4-1-|-1-2-1-2—4-6-6-s11-11-------------
B|----3----6-5-6-3----3---6-5-6-3-|-3-4-3-4-6-7-7-s11-11-11-11-9--7--
G|--3---------------3-------------|----------------------11-11-10-8--
D|--------------------------------|----------------------------------
A|--------------------------------|----------------------------------
E|--------------------------------|----------------------------------


E|------1--4-3-4-1---1-----1--4-3-4-1---1---1-|
B|----3----6-5-6-3-3-3----3---6-5-6-3-3-3-3-3-|
G|--3--------------3-----3------------3---3---|
D|--------------------------------------------|
A|--------------------------------------------|
E|--------------------------------------------|

E|-1-2—1-2-4-6-6-s11-11--------------
B|-3-4-3-4-6-7-7-s11-11-11-11-9--7---
G|----------------------11-11-10-8---
D|-----------------------------------
A|-----------------------------------
E|-----------------------------------

Aquí viene la canción:

E|---------------|-------6---------|----------6-6-|-9-9-7--11-11-9-
B|---------6-7---|--9-6-----9-7----|--7-6-7-9-----|-------9--------
G|---8-7-8-----8-|------7-------8--|-8------------|----------------
D|-8-------------|-----------------|--------------|----------------
A|---------------|-----------------|--------------|----------------
E|---------------|-----------------|--------------|----------------


E|-6-9-6---------|--------6-------|-----------6-6-|-9-6---6--------
B|-------9-6-7---|--9-6-----9-7---|---7-6-7-9-----|-----6---9-7----
G|-------------8-|------7-------8-|-8-------------|----------------
D|---------------|----------------|---------------|----------------
A|---------------|----------------|---------------|----------------
E|---------------|----------------|---------------|----------------

(bis)


E|--------------------------|---------------
B|--7-7-6-------------------|---7-6---9-7---
G|--------8-6-------6-8-8---|-8-----8-----8-
D|------------9-8-9---------|---------------
A|--------------------------|---------------
E|--------------------------|---------------

E|--------------------------------
B|-7-6----------------------------
G|-----8-6--------------8-6-------
D|---------8--8-6-8-9-6-----8-6-8-
A|--------------------------------
E|--------------------------------


E|------1--4-3-4-1------1-4-3-4-1-
B|----3---------------3-----------
G|--3---------------3-------------
D|--------------------------------
A|--------------------------------
E|--------------------------------

|-1-2-1-2—4-6-6-s11-11----------
|---------------------11-11-9-7-
|-------------------------------
|-------------------------------
|-------------------------------
|-------------------------------


E|------1--4-3-4-1------1-4-3-4-1-|
B|----3---------------3-----------|
G|--3---------------3-------------|
D|--------------------------------|
A|--------------------------------|
E|--------------------------------|

|-1-2-1-2—4-6-6-s11-11----------
|---------------------11-11-9-7-
|-------------------------------
|-------------------------------
|-------------------------------
|-------------------------------


Aqui viene la parte intermedia, es parecido a la introduccion
pero no es lo mismo

E|-11-11-11-11-11-11-11-11-11-11-11-11-11-11-9-9-9-9-9-9-
B|-11-11-11-11-11-11-11-11-11-11-11-11-11-11-9-9-9-9-9-9-
G|-------------------------------------------------------
D|-------------------------------------------------------
A|-------------------------------------------------------
E|-------------------------------------------------------

11-11-11-9-9-9-11-------
11-11-11-9-9-9-11-11----
------------------11----
------------------------
------------------------
------------------------




E|------1--4-3-4-1---1------1--4-3-4-1---1---1—
B|----3----6-5-6-3-3-3-3---3---6-5-6-3-3-3-3-3-3
G|--3--------------3---3--3------------3---3---3
D|----------------------------------------------
A|----------------------------------------------
E|----------------------------------------------


E|-1-2—1-2-4-6-6-s11-11--------------
B|-3-4-3-4-6-7-7-s11-11-11-11-9--7---
G|----------------------11-11-10-8---
D|-----------------------------------
A|-----------------------------------
E|-----------------------------------





E|------1--4-3-4-1--------1--4-3-4-1-------
B|----3----6-5-6-3-------3---6-5-6-3-------
G|--3-------------------3------------------
D|-----------------------------------------
A|-----------------------------------------
E|-----------------------------------------

|-1-2—1-2-4-6-6-s11-11--------------
|-3-4-3-4-6-7-7-s11-11-11-11-9--7---
|----------------------11-11-10-8---
|-----------------------------------
|-----------------------------------
|-----------------------------------



De nuevo la cancion


E|---------------|-------6---------|----------6-6-|-9-9-7--11-11-9-
B|---------6-7---|--9-6-----9-7----|--7-6-7-9-----|-------9--------
G|---8-7-8-----8-|------7-------8--|-8------------|----------------
D|-8-------------|-----------------|--------------|----------------
A|---------------|-----------------|--------------|----------------
E|---------------|-----------------|--------------|----------------


E|-6-9-6---------|--------6-------|-----------6-6-|-9-6---6--------
B|-------9-6-7---|--9-6-----9-7---|---7-6-7-9-----|-----6---9-7----
G|-------------8-|------7-------8-|-8-------------|----------------
D|---------------|----------------|---------------|----------------
A|---------------|----------------|---------------|----------------
E|---------------|----------------|---------------|----------------



E|--------------------------|---------------
B|--7-7-6-------------------|---7-6---9-7---
G|--------8-6-------6-8-8---|-8-----8-----8-
D|------------9-8-9---------|---------------
A|--------------------------|---------------
E|--------------------------|---------------

|--------------------------------
|-7-6----------------------------
|-----8-6--------------8-6-------
|---------8--8-6-8-9-6-----8-6-8-
|--------------------------------
|--------------------------------


E|------1--4-3-4-1------1-4-3-4-1-|-1-2-1-2—4-6-6-s11-11-----------
B|----3---------------3-----------|---------------------11-11-9-7--
G|--3---------------3-------------|--------------------------------
D|--------------------------------|--------------------------------
A|--------------------------------|--------------------------------
E|--------------------------------|--------------------------------

E|------1--4-3-4-1------1-4-3-4-1-|-1-2-1-2—4-6-6-s11-11-13-10-11--
B|----3---------------3-----------|--------------------------------
G|--3---------------3-------------|--------------------------------
D|--------------------------------|--------------------------------
A|--------------------------------|--------------------------------
E|--------------------------------|--------------------------------
Calificar esta versión:
Aviso: Este fichero es trabajo propio de su transcriptor y representa su interpretación personal de la canción. El material contenido en esta página es para exclusivo uso privado, por lo que se prohibe su reproducción o retransmisión, así como su uso para fines comerciales.
Más versiones de Juanita, El Peru Criollo
Juanita
tablatura
Juanita (ver 2)
tablatura
Descubre más canciones de El Peru Criollo