Juanita, El Peru Criollo (tablatura)

Autor: Anónimo | 18606 visualizaciones

Esta es la introducción de Juanita, espero que les guste y
sigan siempre con la guitarra. Ricardo.


e|----13-13-13-11—t11-13--------t13-13-----------------------|
b|----13-13-13-13—t13-13----13--t13-13--13-13--11-9----------|
g|--------------------------13----------13-13--12-10---------|
D|-----------------------------------------------------------|
A|-----------------------------------------------------------|
E|-----------------------------------------------------------| x2


e|------------------------------------------------------------
b|-------8--11-10-11--8---------8--11-10-11--8---8-9--8-9-----
g|-----9----12-11-12--9-------9----12-11-12--9---9-10-9-10----
D|--10---------------------10---------------------------------
A|------------------------------------------------------------
E|------------------------------------------------------------

e|----------------t13-13--------------------------------------
b|----11-13-13----t13-13--13-13----11----9--------------------
g|----12—13-13------------13-13--12----10---------------------
D|------------------------------------------------------------
A|------------------------------------------------------------
E|------------------------------------------------------------

e|------------------------------------------------------------
b|--------8--11-10-11--8----------8--11-10-11--8---8-9--8-9---
g|------9----12-11-12--9--------9----12-11-12--9---9-10-9-10--
D|--8/10--------------------8/10------------------------------
A|------------------------------------------------------------
E|------------------------------------------------------------

e|----------------t13-13--------------------------------8-----
b|----11-13-13----t13-13--13-13----11----9--------------------
g|----12—13-13------------13-13--12----10----------9-10-------
D|--------------------------------------------9-10------------
A|------------------------------------------------------------
E|------------------------------------------------------------


payasito86@hotmail.com  
Calificar esta versión:
Aviso: Este fichero es trabajo propio de su transcriptor y representa su interpretación personal de la canción. El material contenido en esta página es para exclusivo uso privado, por lo que se prohibe su reproducción o retransmisión, así como su uso para fines comerciales.
Más versiones de Juanita, El Peru Criollo
Juanita
tablatura
Juanita (ver 2)
tablatura
Descubre más canciones de El Peru Criollo