Dejar Caer El Sol, El Bordo (tablatura) (ver 3)

Autor: Anónimo | 29398 visualizaciones

s: Slide - deslizar
h: slide ligado
~: vibrar
v: Estirar cuerda

Intro:

1|-------------------------------------------------------|
2|----15--12--14v-14~--10h12-10h12-----------------------|
3|--14--14-------------------------12h11-12h11-12s14~----|
4|-------------------------------------------------------|
5|-------------------------------------------------------|
6|-------------------------------------------------------|

1|-------------------------------------------------------|
2|-------------------------10----------------------------|
3|----15--12--14v-14~-----7--9v-7-7h9-9v-----------------|
4|--14--14-------------7h9-------9-----------------------|
5|-------------------------------------------------------|
6|-------------------------------------------------------|



[PUNTEO INTERMEDIO]

1|-------------------------------------------------------|
2|----15--12--14v-14~--10h12-10h12-----------------------|
3|--14--14-------------------------12h11-12h11-12s14~----|
4|-------------------------------------------------------|
5|-------------------------------------------------------|
6|-------------------------------------------------------|


1|----------------17------------------------------------17-----|
2|----15--12--17v~--17v----15-17-17v-15---17v-15--15-17v--17v--|
3|--14--14---------------16------------16-------16-------------|
4|-------------------------------------------------------------|
5|-------------------------------------------------------------|
6|-------------------------------------------------------------|


1|------------------------------------------------------------------|
2|----15--12--15h14--10h12-10h12------------------------------------|
3|--14--14----------------------12h11-12h11-12s14~--12-11-12-11/-|
4|------------------------------------------------------------------|
5|------------------------------------------------------------------|
6|------------------------------------------------------------------|


   |---------------SE TOCA RAPIDO------------|
2|---------------------------------------------------------------|
2|---------------------------10--10-10h12h10---------------------|
4|---------------9--9-11-9-11--11-----------11/--11s12-11--------|
4|--9-11-12-11-12-12-------------------------------------12------|
6|---------------------------------------------------------12----|
6|---------------------------------------------------------------|


1|---3-3--5-------------------------------------------|
2|---3-3--5-----14s15-14---------14s15-14-------------|
3|---4-4--6---14--------14-----14--------14-14s16~----|
4|---5-5--7---------------14~-------------------------|
5|---5-5--7-------------------------------------------|
6|---3-3--5-------------------------------------------|


1|---------------------------------------------------------------|
2|----14s15-14---------------------------------------------------|
3|--14--------14-------------------------------------------------|
4|---------------14-12--11s12s11s12s11s1211s12s11s12s11s12s11s12-|
5|---------------------------------------------------------------|
6|---------------------------------------------------------------|

Despues sigue pero es casi imposible de transcribirlo en la tablatura
en cuanto pueda arreglar mas o menos como lo escribo lo mando, pero aca
tienen una parte del punteo que para mi esta perfecta.
Calificar esta versión:
Aviso: Este fichero es trabajo propio de su transcriptor y representa su interpretación personal de la canción. El material contenido en esta página es para exclusivo uso privado, por lo que se prohibe su reproducción o retransmisión, así como su uso para fines comerciales.
Más versiones de Dejar Caer El Sol, El Bordo
Dejar Caer El Sol
acordes
Dejar Caer El Sol
tablatura
Dejar Caer El Sol (ver 2)
tablatura
Dejar Caer El Sol (ver 3)
tablatura
Dejar Caer El Sol
bajo
Dejar Caer El Sol
armonica
Dejar Caer El Sol (ver 2)
armonica
Descubre más canciones de El Bordo