Dejar Caer El Sol, El Bordo (tablatura)

Autor: Anónimo | 41427 visualizaciones

Qué tal. Subo esta versión totalmente completa. Los acordes
son los mismos ya antes subidos en la transcripción de acordes, pero
yo acá dejé todos los solos y arreglos completos de la canción, que
no estaban así en las otras transcripciones de tablaturas.
Espero que les sirva. Saludos!


Intro: (Bm F#m G D) (Bm F#m G Bb)
e|-------------------------------------------------------------|
B|----15--12--14b-14~--10h12p10-10h12p10-----------------------|
G|--14--14-------------------------------12h11-12h11-12s14~----|
D|-------------------------------------------------------------|
A|-------------------------------------------------------------|
E|-------------------------------------------------------------|

e|----------------------------------------------|
B|----15--12--14b-14-------10-------------------|
G|--14--14---------------7----9br-7---7-9-9b~---|
D|-------------------7h9------------9-----------|
A|----------------------------------------------|
E|----------------------------------------------|

Estrofa:

Bm         F#m        G            D Dsus
 Estás dormida y no puedo hacerte bien
Bm         F#m        G             D Dsus
 Estás tan lejos y tan cerca a la vez
Bm              F#m           G          D Dsus
 Despierta el llanto, la tormenta ya pasó
Bm            F#m        G         D
 Dejando en bruces a mi pobre corazón.

Estribillo:

      A            Bm          G
 Y estás viendo dejar caer el sol
          D
 En algún sueño triste
A            Bm         G
 Viendo dejar caer el sol
Gm
 Voy a sangrarte siempre

Solo de armónica 1
Base en guitarra: (Bm F#m G D) x 2

Estrofa:

Bm           F#m            G         D Dsus
 Me encuentro ahogado, en vacía sensación
e|----------------------------------------|
B|----------------------------------------|
G|----------------------------7-9p7-9b----|
D|-------------------------s9-------------|
A|----------------------------------------|
E|----------------------------------------|

Bm             F#m                          G         D Dsus
       Siento que un suelo es casa si me acuesto junto a vos
e|--10-7------------------------------------------------------|
B|--10-7---------10-----7---------------------------------7*--|
G|------------------------------------------------7*----------|
D|------------------------------------------7*----------------|
A|------------------------------------------------------------|
E|------------------------------------------------------------|
Bm           F#m               G           D Dsus
       Mi mente espía viendo en la imaginación
e|--10-7---------------------------------------|
B|--10-7--------10--7--------------------------|
G|---------------------------------7-9p7-9b----|
D|------------------------------s9-------------|
A|---------------------------------------------|
E|---------------------------------------------|

Bm             F#m             G             D
        Noches vacías solo se llenan con tu voz.
e|--10--7-----------------------------------------|
B|--10--7------10---7-----------------------------|
G|-------------------------------------------7----|
D|-----------------------------555-----------7----|
A|-----------------------------555-----------5----|
E|-----------------------------333----------------|

Estribillo:

      A            Bm          G                  D
 Y estás viendo dejar caer el sol  en algún     sueño triste
e|----------------------------------------------------------|
B|----------------------------------------------------------|
G|----------------------------------------------------------|
D|----------------------------------------------------------|
A|-------------------------4-4s5---------5s7s5---7s9-------|
E|---------------------------------------------------------|

             A           Bm                       G    Bb
            Viendo     dejar     caer       el    sol
e|-------------------------------------------------------------|
B|-------------------------------------------------------------|
G|-----------------------------------------------------3333----|
D|-----------------------------------------------------3333----|
A|--4p2-0-4-2-----2-4p2-----4p2-0-4-2-----2-4p2--------1111----|
E|------------3h5-------5p3-----------3h5-------5-3------------|

Solo 1 en base a intro
(Bm F#m G D) x 4

e|------------------------------------------------------------|
B|----15--12-14b-14~--10h12p10-10h12p10-----------------------|
G|--14--14------------------------------12h11-12h11-12s14~----|
D|------------------------------------------------------------|
A|------------------------------------------------------------|
E|------------------------------------------------------------|

e|----------------17------------------------------------------17-----|
B|----15--12-17brb--17brp15----15-17brp15-----17b__rp15----17b---17--|
G|--14--14-------------------16------------16-----------16-----------|
D|-------------------------------------------------------------------|
A|-------------------------------------------------------------------|
E|-------------------------------------------------------------------|

e|-------------------------------------------------------------------|
B|----15--12---b14r-10h12p10-10h12p10--------------------------------|
G|--14--14----------------------------12h11-12h11-12s14~-12-11-12-11-|
D|-------------------------------------------------------------------|
A|-------------------------------------------------------------------|
E|-------------------------------------------------------------------|
e|--------------------------------10p7-10-10h12p10-12----------------|
B|---------------10p7-10-12p10-12------------------------------------|
G|-----9-11p9-11--------------------------------------11h12-11-------|
D|--12---------------------------------------------------------12----|
A|----------------------------------------------------------------12-|
E|-------------------------------------------------------------------|

Solo 2 en base
(G A) x 4

   G G A                G G A                 G G
e|---------------------------------------------------|
B|----------14h15-14-------------14h15-14------------|
G|-------14----------14-------14----------14-14s16~--|
D|----------------------14~--------------------------|
A|---------------------------------------------------|
E|---------------------------------------------------|

   A              G G   A
e|------------------------------------------------------------------|
B|-----14s15-14-----------------------------------------------------|
G|---14--------14---------------------------------------------------|
D|----------------14-12--11h12p11h12p11h12p11h12p11h12p11h12p11h12--|
A|------------------------------------------------------------------|
E|------------------------------------------------------------------|

Solo 3 en base estribillo:

A Bm G D A G
A Bm G D A
A Bm G D A G
A Bm G Bb

e|-------------------------------------------------------------------|
B|--17-----17----------------17-------17----17---------------17---17-|
G|--16b-14-16b-16brp14----14----16-14----14----16brp14----14---16----|
D|---------------------16------------------------------16------------|
A|-------------------------------------------------------------------|
E|-------------------------------------------------------------------|

e|------------------------------------------------------------|
B|----------------------------------17-----17-----17-----17---|
G|--16s19--19-19s17-17p16-14----16b----16b----16b----16b------|
D|---------------------------16-------------------------------|
A|------------------------------------------------------------|
E|------------------------------------------------------------|

e|-------------------------------------------------------------------|
B|------------------------------17-----------17-----17-----17-----17-|
G|--16brp14----14-16brp14----14----16-14-16b----16b----16b----16b----|
D|----------16------------16-----------------------------------------|
A|-------------------------------------------------------------------|
E|-------------------------------------------------------------------|

e|-------------------------------------------------------------------|
B|----------17b-14-15-17-15-14h15p14---------------------------------|
G|--16br-14--------------------------16-14-16-|16b-rp14----14|-------|
D|--------------------------------------------|---------16---|-x8----|
A|-------------------------------------------------------------------|
E|-------------------------------------------------------------------|


e|-----------------------------17b-17b-17b-17b-17b-17-------------|
B|--17b-rp15-17b-rp15-17b-rp15------------------------------------|
G|----------------------------------------------------4b-s/-------|
D|-----------------------------------------------------------5-5--|
A|-----------------------------------------------------------5-5--|
E|-----------------------------------------------------------3-3--|

       Viendo dejar caer  el sol,   voy a sangrarte siempre!
e|------------------------------------|
B|------------------------------------|
G|--4b---4br--6-6h7-6-4-2---------3---|
D|---------------------------5----3---|
A|---------------------------5----1---|
E|---------------------------3--------|

Solo de armónica 2
Base en guitarra:

G D A Bm
G D A Bm A
G D A Bm ------------->D|-------2--------|
G D A Bb               A|-2-4-5----------|


Final:

   Bm   F#m   G        D   Bm   F#m  G          G
e|----7--------------------10-7-------------------|
B|--7---10-7---------------10-7-10-7-------7*-----|
G|---------------7-9p7-9b---------------7*--------|
D|------------s9---------------------7*-----------|
A|------------------------------------------------|
E|------------------------------------------------|



Notación:
- h: hammer on o ligado ascendente. Se toca la cuerda en un traste
y se pisa en otro mayor sin tocar la cuerda.
- p: pull off o ligado descendente. Se toca la cuerda en un traste
y se levanta el dedo hacia un traste menor sin tocar la cuerda.
- b: bending, o estirar la cuerda. Se estira la cuerda
en un traste hasta hacer que suene como, generalmente, un semitono
o un tono mayor (o el número que se indique en el paréntesis, el cual
no se especifica en esta tablatura).
- r: release o bajar la cuerda (que fue antes estirada). Se estira
una cuerda y se baja hasta su lugar de origen.
- brp: bending + release + pull off. Se estira la cuerda en un traste
hasta que suene como se desee, luego se baja la cuerda hasta su
lugar de origen y luego, ligado descendente con un traste menor.
- *: armónico. Se toca la cuerda en un traste de manera tal que
suene como si estuviéramos tocándola 12 trastes adelante.
- s: slide o deslizar. Tocar la cuerda en cierto traste y con el
mismo dedo deslizar a un traste menor o mayor.
- ~: vibrato. Hacer vibrar la cuerda.

(Cuando vean por ejemplo esto [ 17b-rp15 ], quiere decir que deben,
primero, estirar la cuerda en el traste 17, luego golpear la cuerda
estirada y finalmente, bajarla hasta su origen y hacer el ligado
descendente).
Calificar esta versión:
Aviso: Este fichero es trabajo propio de su transcriptor y representa su interpretación personal de la canción. El material contenido en esta página es para exclusivo uso privado, por lo que se prohibe su reproducción o retransmisión, así como su uso para fines comerciales.
Más versiones de Dejar Caer El Sol, El Bordo
Dejar Caer El Sol
acordes
Dejar Caer El Sol
tablatura
Dejar Caer El Sol (ver 2)
tablatura
Dejar Caer El Sol (ver 3)
tablatura
Dejar Caer El Sol
bajo
Dejar Caer El Sol
armonica
Dejar Caer El Sol (ver 2)
armonica
Descubre más canciones de El Bordo