Dejar Caer El Sol, El Bordo (tablatura) (ver 2)

Autor: Anónimo | 19768 visualizaciones

esta toda sacada a oido
espero que les sirva
cualquier duda pregunten x msn!
suerteee!!



Intro:
Bm - F# - G - D

e|-----------------------------------------------------|
B|-----15----12-14b-14--12----12-----------------------|
G|--14----14---------------14----14-12-11-12-11-12/14--|
D|-----------------------------------------------------|
A|-----------------------------------------------------|
E|-----------------------------------------------------|

e|-------------------------------------------------------|
B|-----15----12-14b-14-----------------------------------|
G|--14----14--------------------7-9br-7---7--9-9b~~~~~~--|
D|--------------------------7-9---------9----------------|
A|-------------------------------------------------------|
E|-------------------------------------------------------|

--------------------------------------------------------------------------


Bm - F#m - G - D(Dsus4-D)
Estas Dormida y no puedo hacerte bien
Bm - F#m - G - D(Dsus4-D)
Estas tan lejos y tan cerca a la vez
Bm - F#m - G - D(Dsus4-D)
Despierta el llanto, la tormenta ya paso
Bm - F#m - G - D(Dsus4-D)
dejado en bruces a este pobre corazon

A Bm G
Y estas viendo dejar caer el sol
D
en algun sueño triste
A Bm G
Viendo dejar caer el sol
Gm
Voy a sangrarte siempre


Armonica: (Bm - F# - G - D)

--------------------------------------------------------------------------

Bm - F#m - G - D(Dsus4-D)
Me encuentro ahogado en vacia sensacion
siento que un suelo es casa si me acuesto junto a vos
mi mente espia viendo la imaginacion
noches vacias, solo se llenan con tu voz

A Bm G
Y estas viendo dejar caer el sol....

--------------------------------------------------------------------------



INTRO-SOLO:
e|-----------------------------------------------------|
B|-----15----12-14b-14--12----12-----------------------|
G|--14----14---------------14----14-12-11-12-11-12/14--|
D|-----------------------------------------------------|
A|-----------------------------------------------------|
E|-----------------------------------------------------|

                                /--------- RAPIDO ------
e|-------------------17-----------------------------------17--|
B|----15----12---17b-----15----15-17b-15----17b-15----17b-----|
G|-14----14-----------------16-----------16--------16---------|
D|------------------------------------------------------------|
A|------------------------------------------------------------|
E|------------------------------------------------------------|

e|-------------------------------------------------------------------|
B|----15----12-15h14--12----12---------------------------------------|
G|-14----14---------------14----14-12-11-12-11-12/14--12-11-12-11----|
D|----------------------------------------------------------------12-|
A|-------------------------------------------------------------------|
E|-------------------------------------------------------------------|

/------------- NO TOY TAN SEGURO --------------
e|-----------------------------------------------------------------|
B|-----------------------------------12-14-12----------------------|
G|--------------11----11-12-14-12-14------------------12-11--------|
D|--12-11-12-14----14---------------------------------------12-----|
A|-------------------------------------------------------------12--|
E|-----------------------------------------------------------------|

e|------------------------------------------------------------------|
B|----14-15-14----------14-15-14---------14-15-14-------------------|
G|-14----------14----14---------14-16--14--------14-----------------|
D|----------------14--------------------------------14-12-11-12-11--|
A|------------------------------------------------------------------|
E|------------------------------------------------------------------|
--------------------------------------------------------------------------


DESPUES CREO QUE SE BARDEA X ACA
Y SIGUE X LOS TRASTES 14 16 y esos (en la 1ra 2da 3ra y nose si 4ta cuerda)
e|--------------------------------------------------------------------|
B|-14--------------------14------------------15-------------17----17--|
G|-16b----16br-14---14---16b----16br-14--14-----17-16-14-16b---16b----|
D|(varias)-------16---(varias)---------16-----------------------------|
A|(veces)-------------(veces)-----------------------------------------|
E|--------------------------------------------------------------------|




e|------------------------------------------------------------------------|
B|-14--------------------14------------------17b---15-17-15------------17-|
G|-16b----16br-14---14---16b----16br-14--14-----18---------18-16-14-16b---|
D|(varias)-------16---(varias)---------16---------------------------------|
A|(veces)-------------(veces)---------------------------------------------|
E|------------------------------------------------------------------------|
y sigue un poco mas masomenos como en estas !
(aclaracion: es sacada masomenos esta parte xq es mucho mas jodida pero
toca masomenos x esa zona y masomenos eso!)


--------------------------------------------------------------------------


A          Bm           G
  Viendo dejar caer el sol
A
voy a sangrarte siempre

--------------------------------------------------------------------------

Solo Armonica : G - D - A - Bm  (x3)
                G - D - A - A#


Final: Bm - F#m - G - D
       Bm - F#m - G
Calificar esta versión:
Aviso: Este fichero es trabajo propio de su transcriptor y representa su interpretación personal de la canción. El material contenido en esta página es para exclusivo uso privado, por lo que se prohibe su reproducción o retransmisión, así como su uso para fines comerciales.
Más versiones de Dejar Caer El Sol, El Bordo
Dejar Caer El Sol
acordes
Dejar Caer El Sol
tablatura
Dejar Caer El Sol (ver 2)
tablatura
Dejar Caer El Sol (ver 3)
tablatura
Dejar Caer El Sol
bajo
Dejar Caer El Sol
armonica
Dejar Caer El Sol (ver 2)
armonica
Descubre más canciones de El Bordo