En Algun Lugar, Duncan Dhu (tablatura) (ver 3)

Autor: Anónimo | 45029 visualizaciones

BUENO, EN ESTA TRANSCRIPCION DE ESTA CANCION, TRATE DE PONER LAS GUITARRAS
Y LOS TECLADOS DE TODA LA CANCION (NADA MAS LOS ARREGLOS, NO VIENE LA ARMONIA)
ES IMPORTANTE QUE LLEVES EL TIEMPO PARA QUE NO TE VALLAS A PERDER, A CONTINUACION
ESTA LA LISTA DE LOS INSTRUMENTOS QUE INCLUI ASI COMO EL NUMERO DE GUITARRA 
QUE REPRESENTA DICHO INSTRUMENTO.

Gtr I    (E A D G B E) - Teclados
Gtr II   (E A D G B E) - Guitarra eléctrica 1
Gtr III  (E A D G B E) - Sintetizador 2
Gtr IV   (E A D G B E) - Sintetizador 1
Gtr V    (E A D G B E) - Guitarra eléctrica 2

  Q=147
 4/4
  Gtr I
  W          W          W          W
|----------|----------|----------|------|
|----------|----------|----------|------|
|----------|----------|----------|------|
|----------|----------|----------|------|
|----------|----------|----------|------|
|----------|----------|----------|------|


  W          W          W          W
|----------|----------|----------|------|
|----------|----------|----------|------|
|----------|----------|----------|------|
|----------|----------|----------|------|
|----------|----------|----------|------|
|----------|----------|----------|------|


  Gtrs I, IV
  W          W          W          H    H
|----------|----------|----------|-3----2----|
|----------|----------|----------|-----------|
|----------|----------|----------|-----------|
|----------|----------|----------|-----------|
|----------|----------|----------|-----------|
|----------|----------|----------|-----------|


  W          +W           +W           +W
|----------|------------|------------|--------|
|-5--------|-(5)--------|-(5)--------|-(5)----|
|----------|------------|------------|--------|
|----------|------------|------------|--------|
|----------|------------|------------|--------|
|----------|------------|------------|--------|


  +W           +W            Q.    E  +E   E  E  E    Q.    E  +Q    E  E
|------------|------------|--3-----3--(3)--5--7--8-|-10----10-(10)---8--7-|
|-(5)--------|-(5)--------|------------------------|--7-----7--(7)--------|
|------------|------------|--4-----4--(4)--5--7--9-|-----------------9--7-|
|------------|------------|------------------------|----------------------|
|------------|------------|------------------------|----------------------|
|------------|------------|------------------------|----------------------|
|
| Gtr II
|  W            W            Q.    E  +E   E  E  E    Q.    E  +Q    E  E
|------------|------------|---------------------12-|-14----14-(14)--12----|
|------------|------------|-12----12-(12)-13-15----|-------------------15-|
|------------|------------|------------------------|----------------------|
|------------|------------|------------------------|----------------------|
|------------|------------|------------------------|----------------------|
|------------|------------|------------------------|----------------------|


   E  E  +E   E  +H        E  E  E  E  +Q    Q
|--8--7--(7)------------|--8--7-----8--(8)---7--|
|-------------8--(8)----|--------8--------------|
|--9--7--(7)------------|--9--7-----9--(9)---7--|
|-------------9--(9)----|--------9--------------|
|-----------------------|-----------------------|
|-----------------------|-----------------------|
|
|  E  E  +E   E  +H        E  E  E  E  +Q    Q
|-12--------------------|-12-------12-(12)------|
|----15-(15)-12-(12)----|----15-12----------15--|
|-----------------------|-----------------------|
|-----------------------|-----------------------|
|-----------------------|-----------------------|
|-----------------------|-----------------------|


   Q.    E  +E   E  E  E    Q.    E  +Q    E  E
|------------------------|-10----10-(10)---8--7-|
|--8-----8--(8)-10-12-13-|----------------------|
|------------------------|-11----11-(11)---9--7-|
|--9-----9--(9)-10-12-14-|----------------------|
|------------------------|----------------------|
|------------------------|----------------------|
|
|  Q.    E  +E   E  E  E    Q.    E  +Q    E  E
|---------------------12-|-14----14-(14)--12----|
|-12----12-(12)-13-15----|-------------------15-|
|------------------------|----------------------|
|------------------------|----------------------|
|------------------------|----------------------|
|------------------------|----------------------|


   E  E  +E   E  +H        E  E  E  E  +Q    Q     W          W
|--8--7--(7)------------|--8--7-----8--(8)---7--|-----------|------|
|-------------8--(8)----|--------8--------------|-----------|------|
|--9--7--(7)------------|--9--7-----9--(9)---7--|--9--------|------|
|-------------9--(9)----|--------9--------------|--9--------|------|
|-----------------------|-----------------------|-----------|------|
|-----------------------|-----------------------|-----------|------|
|
|  E  E  +E   E  +H        E  E  E  E  +Q    Q     W          W
|-12--------------------|-12-------12-(12)------|-----------|------|
|----15-(15)-12-(12)----|----15-12----------15--|-12--------|------|
|-----------------------|-----------------------|-----------|------|
|-----------------------|-----------------------|-----------|------|
|-----------------------|-----------------------|-----------|------|
|-----------------------|-----------------------|-----------|------|


  Gtr I
  W          W          W          W
|----------|----------|----------|------|
|----------|----------|----------|------|
|----------|----------|----------|------|
|----------|----------|----------|------|
|----------|----------|----------|------|
|----------|----------|----------|------|


  W          W          W          W
|----------|----------|----------|------|
|----------|----------|----------|------|
|----------|----------|----------|------|
|----------|----------|----------|------|
|----------|----------|----------|------|
|----------|----------|----------|------|


  W          W          W          W
|----------|----------|----------|------|
|----------|----------|----------|------|
|----------|----------|----------|------|
|----------|----------|----------|------|
|----------|----------|----------|------|
|----------|----------|----------|------|


  W          W          W          W
|----------|----------|----------|------|
|----------|----------|----------|------|
|----------|----------|----------|------|
|----------|----------|----------|------|
|----------|----------|----------|------|
|----------|----------|----------|------|


  Gtrs I, IV
  W          H    H      W          +W
|----------|-----------|----------|--------|
|----------|-8----7----|-5--------|-(5)----|
|----------|-----------|----------|--------|
|----------|-----------|----------|--------|
|----------|-----------|----------|--------|
|----------|-----------|----------|--------|


  +W           +W           +W           +W
|------------|------------|------------|--------|
|-(5)--------|-(5)--------|-(5)--------|-(5)----|
|------------|------------|------------|--------|
|------------|------------|------------|--------|
|------------|------------|------------|--------|
|------------|------------|------------|--------|


   Q.    E  +E   E  E  E    Q.    E  +Q    E  E
|--3-----3--(3)--5--7--8-|-10----10-(10)---8--7-|
|------------------------|----------------------|
|--4-----4--(4)--5--7--9-|-11----11-(11)---9--7-|
|------------------------|----------------------|
|------------------------|----------------------|
|------------------------|----------------------|
|
| Gtr II
|  Q.    E  +E   E  E  E    Q.    E  +Q    E  E
|------------------------|-14----14-(14)--12----|
|------------------15-17-|-------------------15-|
|-16----16-(16)-17-------|----------------------|
|------------------------|----------------------|
|------------------------|----------------------|
|------------------------|----------------------|


   E  E  +E   E  +H        E  E  E  E  +Q    Q
|--8--7--(7)------------|--8--7-----8--(8)---7--|
|-------------8--(8)----|--------8--------------|
|--9--7--(7)------------|--9--7-----9--(9)---7--|
|-------------9--(9)----|--------9--------------|
|-----------------------|-----------------------|
|-----------------------|-----------------------|
|
|  E  E  +E   E  +H        E  E  E  E  +Q    Q
|-----------------------|-----------------------|
|-17-15-(15)------------|-17-15----17-(17)--15--|
|------------16-(16)----|-------16--------------|
|-----------------------|-----------------------|
|-----------------------|-----------------------|
|-----------------------|-----------------------|


   Q.    E  +E   E  E  E    Q.    E  +Q    E  E
|------------------------|-10----10-(10)---8--7-|
|--8-----8--(8)-10-12-13-|----------------------|
|------------------------|-11----11-(11)---9--7-|
|--9-----9--(9)-10-12-14-|----------------------|
|------------------------|----------------------|
|------------------------|----------------------|
|
|  Q.    E  +E   E  E  E    Q.    E  +Q    E  E
|---------------------12-|-14----14-(14)--12----|
|------------------15----|-------------------15-|
|-16----16-(16)-17-------|----------------------|
|------------------------|----------------------|
|------------------------|----------------------|
|------------------------|----------------------|


   E  E  +E   E  +H        E  E  E  E  +Q    Q
|--8--7--(7)------------|--8--7-----8--(8)---7--|
|-------------8--(8)----|--------8--------------|
|--9--7--(7)------------|--9--7-----9--(9)---7--|
|-------------9--(9)----|--------9--------------|
|-----------------------|-----------------------|
|-----------------------|-----------------------|
|
|  E  E  +E   E  +H        E  E  E  E  +Q    Q
|-----------------------|-12-------12-(12)------|
|-17-15-(15)------------|----15-------------15--|
|------------16-(16)----|-------16--------------|
|-----------------------|-----------------------|
|-----------------------|-----------------------|
|-----------------------|-----------------------|


   Q.    E  +E   E  E  E    Q.    E  +Q    E  E
|------------------------|-10----10-(10)---8--7-|
|--8-----8--(8)-10-12-13-|----------------------|
|------------------------|-11----11-(11)---9--7-|
|--9-----9--(9)-10-12-14-|----------------------|
|------------------------|----------------------|
|------------------------|----------------------|
|
|  Q.    E  +E   E  E  E    Q.    E  +Q    E  E
|---------------------12-|-14----14-(14)--12----|
|-12----12-(12)-13-15----|-------------------15-|
|------------------------|----------------------|
|------------------------|----------------------|
|------------------------|----------------------|
|------------------------|----------------------|


   E  E  Q   +H        E  E  E  E  +Q    Q
|--8--7-------------|--8--7-----8--(8)---7--|
|--------8---(8)----|--------8--------------|
|--9--7-------------|--9--7-----9--(9)---7--|
|--------9---(9)----|--------9--------------|
|-------------------|-----------------------|
|-------------------|-----------------------|
|
|  E  E  Q   +H        E  E  E  E  +Q    Q
|-12----------------|-12-------12-(12)------|
|----15-12--(12)----|----15-12----------15--|
|-------------------|-----------------------|
|-------------------|-----------------------|
|-------------------|-----------------------|
|-------------------|-----------------------|


   Q.    E  +E   E  E  E    Q.    E  +Q    E  E
|------------------------|-10----10-(10)---8--7-|
|--8-----8--(8)-10-12-13-|----------------------|
|------------------------|-11----11-(11)---9--7-|
|--9-----9--(9)-10-12-14-|----------------------|
|------------------------|----------------------|
|------------------------|----------------------|
|
|  Q.    E  +E   E  E  E    Q.    E  +Q    E  E
|---------------------12-|-14----14-(14)--12----|
|-12----12-(12)-13-15----|-------------------15-|
|------------------------|----------------------|
|------------------------|----------------------|
|------------------------|----------------------|
|------------------------|----------------------|


   E  E  Q   +H        E  E  E  E  +Q    Q
|--8--7-------------|--8--7-----8--(8)---7--|
|--------8---(8)----|--------8--------------|
|--9--7-------------|--9--7-----9--(9)---7--|
|--------9---(9)----|--------9--------------|
|-------------------|-----------------------|
|-------------------|-----------------------|
|
|  E  E  Q   +H        E  E  E  E  +Q    Q
|-12----------------|-12-------12-(12)------|
|----15-12--(12)----|----15-12----------15--|
|-------------------|-----------------------|
|-------------------|-----------------------|
|-------------------|-----------------------|
|-------------------|-----------------------|


  Gtr V
  W          W          H    H      +W
|----------|----------|-----------|--------|
|----------|----------|-----------|--------|
|----------|----------|------4----|-(4)----|
|----------|----------|-----------|--------|
|----------|----------|-----------|--------|
|----------|----------|-----------|--------|


  H     H       +W           Q   E  E  +H        +Q    Q   +H
|------12----|-(12)--------|-------19-(19)----|-(19)--------------|
|------------|-------------|----12------------|-------------------|
|------------|-------------|------------------|-------------------|
|------------|-------------|------------------|-------14--(14)----|
|------------|-------------|------------------|-------------------|
|------------|-------------|------------------|-------------------|


  E E +Q   E E E E   E E E E +Q   E E   Q.   E E E E E   Q  Q  Q  E E
|------------------|------------------|--------------3-|--------------|
|---0-(0)--0-------|------------------|-5----5-----5---|-5----------1-|
|---0-(0)--0-2-0-2-|---0---0-(0)----0-|-0--------4---0-|----4--4--3-4-|
|------------2-0-2-|---0-2-0-(0)----0-|------------2---|-2------------|
|------------------|-----2------------|----------------|----2--2--2-0-|
|------------------|------------------|----------------|--------------|


  E E +E  E E E +S  E.   Q  S E S +E  S S E E   +S  S S S +S  Q  S S S Q
|----------------------|----------------------|---------------------------|
|-0--------------------|-1--1-1-1-(1)---1-1-1-|-(1)---1-1-(1)-1--1-1------|
|-------------------4--|------4-----------4---|---------4-(4)------4---5--|
|----------------------|----------------------|---------------------------|
|---2-(2)---0-2-(2)-2--|------2-----------2---|---------2-(2)----------2--|
|---------3------------|----------------------|---------------------------|


                                                    Gtr III
  +S  S E +Q   Q  +S  S S S   W          W          W
|---------------------------|----------|----------|-3----|
|-------5-(5)---------------|----------|----------|------|
|-(5)-----------------------|----------|----------|------|
|-------2-(2)---------------|----------|----------|------|
|-(2)----------2--(2)-0-----|----------|----------|------|
|-----------------------3-0-|----------|----------|------|


  +H     +Q.   E   W          +W           +H.      Q
|-(3)----(3)-----|-7--------|-(7)--------|-(7)---------|
|----------------|----------|------------|-------------|
|----------------|----------|------------|-------------|
|----------------|----------|------------|-------------|
|----------------|----------|------------|-------------|
|----------------|----------|------------|-------------|


   W           +W            +H.      Q     W
|-12--------|-(12)--------|-(12)---------|-------|
|-----------|-------------|--------------|-------|
|-----------|-------------|--------------|-12----|
|-----------|-------------|--------------|-------|
|-----------|-------------|--------------|-------|
|-----------|-------------|--------------|-------|


   +H      +Q.   E    W           +H      +Q.   E    W
|------------------|-----------|------------------|-12----|
|------------------|-12--------|-(12)----(12)-----|-------|
|-(12)----(12)-----|-----------|------------------|-------|
|------------------|-----------|------------------|-------|
|------------------|-----------|------------------|-------|
|------------------|-----------|------------------|-------|


   +W            +W            +H.      Q    W
|-(12)--------|-(12)--------|-(12)---------|------|
|-------------|-------------|--------------|------|
|-------------|-------------|--------------|------|
|-------------|-------------|--------------|------|
|-------------|-------------|--------------|------|
|-------------|-------------|--------------|------|


  Gtrs I, IV
  W          H    H      W          +W
|----------|-----------|----------|--------|
|----------|-8----7----|-5--------|-(5)----|
|----------|-----------|----------|--------|
|----------|-----------|----------|--------|
|----------|-----------|----------|--------|
|----------|-----------|----------|--------|


  +W           +W           +W           +W
|------------|------------|------------|--------|
|-(5)--------|-(5)--------|-(5)--------|-(5)----|
|------------|------------|------------|--------|
|------------|------------|------------|--------|
|------------|------------|------------|--------|
|------------|------------|------------|--------|


   Q.    E  +E   E  E  E    Q.    E  +Q    E  E
|--3-----3--(3)--5--7--8-|-10----10-(10)---8--7-|
|--0-----0--(0)----------|--7-----7--(7)--------|
|----------------5--7--9-|-----------------9--7-|
|------------------------|----------------------|
|------------------------|----------------------|
|------------------------|----------------------|
|
| Gtr II
|  Q.    E  +E   E  E  E    Q.    E  +Q    E  E
|---------------------12-|-14----14-(14)--12----|
|-12----12-(12)-13-15----|-------------------15-|
|------------------------|----------------------|
|------------------------|----------------------|
|------------------------|----------------------|
|------------------------|----------------------|


   E  E  Q   +H        E  E  E  E  +Q    Q
|--8--7-------------|--8--7-----8--(8)---7--|
|--------8---(8)----|--------8--------------|
|--9--7-------------|--9--7-----9--(9)---7--|
|--------9---(9)----|--------9--------------|
|-------------------|-----------------------|
|-------------------|-----------------------|
|
|  E  E  Q   +H        E  E  E  E  +Q    Q
|-12----------------|-12-------12-(12)------|
|----15-12--(12)----|----15-12----------15--|
|-------------------|-----------------------|
|-------------------|-----------------------|
|-------------------|-----------------------|
|-------------------|-----------------------|


   Q.    E  +E   E  E  E    Q.    E  +Q    E  E
|------------------------|-10----10-(10)---8--7-|
|--8-----8--(8)-10-12-13-|----------------------|
|------------------------|-11----11-(11)---9--7-|
|--9-----9--(9)-10-12-14-|----------------------|
|------------------------|----------------------|
|------------------------|----------------------|
|
|  Q.    E  +E   E  E  E    Q.    E  +Q    E  E
|---------------------12-|-14----14-(14)--12----|
|-12----12-(12)-13-15----|-------------------15-|
|------------------------|----------------------|
|------------------------|----------------------|
|------------------------|----------------------|
|------------------------|----------------------|


   E  E  Q   +H        E  E  E  E  +Q    Q
|--8--7-------------|--8--7-----8--(8)---7--|
|--------8---(8)----|--------8--------------|
|--9--7-------------|--9--7-----9--(9)---7--|
|--------9---(9)----|--------9--------------|
|-------------------|-----------------------|
|-------------------|-----------------------|
|
|  E  E  Q   +H        E  E  E  E  +Q    Q
|-12----------------|-12-------12-(12)------|
|----15-12--(12)----|----15-12----------15--|
|-------------------|-----------------------|
|-------------------|-----------------------|
|-------------------|-----------------------|
|-------------------|-----------------------|


   Q.    E  +E   E  E  E    Q.    E  +Q    E  E
|------------------------|-10----10-(10)---8--7-|
|--8-----8--(8)-10-12-13-|----------------------|
|------------------------|-11----11-(11)---9--7-|
|--9-----9--(9)-10-12-14-|----------------------|
|------------------------|----------------------|
|------------------------|----------------------|
|
|  Q.    E  +E   E  E  E    Q.    E  +Q    E  E
|---------------------12-|-14----14-(14)--12----|
|-12----12-(12)-13-15----|-------------------15-|
|------------------------|----------------------|
|------------------------|----------------------|
|------------------------|----------------------|
|------------------------|----------------------|


   E  E  Q   +H        E  E  E  E  +Q    Q
|--8--7-------------|--8--7-----8--(8)---7--|
|--------8---(8)----|--------8--------------|
|--9--7-------------|--9--7-----9--(9)---7--|
|--------9---(9)----|--------9--------------|
|-------------------|-----------------------|
|-------------------|-----------------------|
|
|  E  E  Q   +H        E  E  E  E  +Q    Q
|-12----------------|-12-------12-(12)------|
|----15-12--(12)----|----15-12----------15--|
|-------------------|-----------------------|
|-------------------|-----------------------|
|-------------------|-----------------------|
|-------------------|-----------------------|


   Q.    E  +E   E  E  E    Q.    E  +Q    E  E
|------------------------|-10----10-(10)---8--7-|
|--8-----8--(8)-10-12-13-|----------------------|
|------------------------|-11----11-(11)---9--7-|
|--9-----9--(9)-10-12-14-|----------------------|
|------------------------|----------------------|
|------------------------|----------------------|
|
|  Q.    E  +E   E  E  E    Q.    E  +Q    E  E
|---------------------12-|-14----14-(14)--12----|
|-12----12-(12)-13-15----|-------------------15-|
|------------------------|----------------------|
|------------------------|----------------------|
|------------------------|----------------------|
|------------------------|----------------------|


   E  E  Q   +H        E  E  E  E  +Q    Q
|--8--7-------------|--8--7-----8--(8)---7--|
|--------8---(8)----|--------8--------------|
|--9--7-------------|--9--7-----9--(9)---7--|
|--------9---(9)----|--------9--------------|
|-------------------|-----------------------|
|-------------------|-----------------------|
|
|  E  E  Q   +H        E  E  E  E  +Q    Q
|-12----------------|-12-------12-(12)------|
|----15-12--(12)----|----15-12----------15--|
|-------------------|-----------------------|
|-------------------|-----------------------|
|-------------------|-----------------------|
|-------------------|-----------------------|


   Q.    E  +E   E  E  E    Q.    E  +Q    E  E
|------------------------|-10----10-(10)---8--7-|
|--8-----8--(8)-10-12-13-|----------------------|
|------------------------|-11----11-(11)---9--7-|
|--9-----9--(9)-10-12-14-|----------------------|
|------------------------|----------------------|
|------------------------|----------------------|
|
|  Q.    E  +E   E  E  E    Q.    E  +Q    E  E
|---------------------12-|-14----14-(14)--12----|
|-12----12-(12)-13-15----|-------------------15-|
|------------------------|----------------------|
|------------------------|----------------------|
|------------------------|----------------------|
|------------------------|----------------------|


   E  E  +E   E  +H        E  E  E  E  +Q    Q
|--8--7--(7)------------|--8--7-----8--(8)---7--|
|-------------8--(8)----|--------8--------------|
|--9--7--(7)------------|--9--7-----9--(9)---7--|
|-------------9--(9)----|--------9--------------|
|-----------------------|-----------------------|
|-----------------------|-----------------------|
|
|  E  E  +E   E  +H        E  E  E  E  +Q    Q
|-12--------------------|-12-------12-(12)------|
|----15-(15)-12-(12)----|----15-12----------15--|
|-----------------------|-----------------------|
|-----------------------|-----------------------|
|-----------------------|-----------------------|
|-----------------------|-----------------------|


   Q.    E  +E   E  E  E    Q.    E  +Q    E  E
|------------------------|-10----10-(10)---8--7-|
|--8-----8--(8)-10-12-13-|----------------------|
|------------------------|-11----11-(11)---9--7-|
|--9-----9--(9)-10-12-14-|----------------------|
|------------------------|----------------------|
|------------------------|----------------------|
|
|  Q.    E  +E   E  E  E    Q.    E  +Q    E  E
|---------------------12-|-14----14-(14)--12----|
|-12----12-(12)-13-15----|-------------------15-|
|------------------------|----------------------|
|------------------------|----------------------|
|------------------------|----------------------|
|------------------------|----------------------|


   E  E  +E   E  +H        E  E  E  E  +Q    Q
|--8--7--(7)------------|--8--7-----8--(8)---7--|
|-------------8--(8)----|--------8--------------|
|--9--7--(7)------------|--9--7-----9--(9)---7--|
|-------------9--(9)----|--------9--------------|
|-----------------------|-----------------------|
|-----------------------|-----------------------|
|
|  E  E  +E   E  +H        E  E  E  E  +Q    Q
|-12--------------------|-12-------12-(12)------|
|----15-(15)-12-(12)----|----15-12----------15--|
|-----------------------|-----------------------|
|-----------------------|-----------------------|
|-----------------------|-----------------------|
|-----------------------|-----------------------|


   Q.    E  +E   E  E  E    Q.    E  +Q    E  E
|------------------------|-10----10-(10)---8--7-|
|--8-----8--(8)-10-12-13-|----------------------|
|------------------------|-11----11-(11)---9--7-|
|--9-----9--(9)-10-12-14-|----------------------|
|------------------------|----------------------|
|------------------------|----------------------|
|
|  Q.    E  +E   E  E  E    Q.    E  +Q    E  E
|---------------------12-|-14----14-(14)--12----|
|-12----12-(12)-13-15----|-------------------15-|
|------------------------|----------------------|
|------------------------|----------------------|
|------------------------|----------------------|
|------------------------|----------------------|


   E  E  +E   E  +H        E  E  E  E  +Q    Q
|--8--7--(7)------------|--8--7-----8--(8)---7--|
|-------------8--(8)----|--------8--------------|
|--9--7--(7)------------|--9--7-----9--(9)---7--|
|-------------9--(9)----|--------9--------------|
|-----------------------|-----------------------|
|-----------------------|-----------------------|
|
|  E  E  +E   E  +H        E  E  E  E  +Q    Q
|-12--------------------|-12-------12-(12)------|
|----15-(15)-12-(12)----|----15-12----------15--|
|-----------------------|-----------------------|
|-----------------------|-----------------------|
|-----------------------|-----------------------|
|-----------------------|-----------------------|


   Q.    E  +E   E  E  E    Q.    E  +Q    E  E
|------------------------|-10----10-(10)---8--7-|
|--8-----8--(8)-10-12-13-|----------------------|
|------------------------|-11----11-(11)---9--7-|
|--9-----9--(9)-10-12-14-|----------------------|
|------------------------|----------------------|
|------------------------|----------------------|
|
|  Q.    E  +E   E  E  E    Q.    E  +Q    E  E
|---------------------12-|-14----14-(14)--12----|
|-12----12-(12)-13-15----|-------------------15-|
|------------------------|----------------------|
|------------------------|----------------------|
|------------------------|----------------------|
|------------------------|----------------------|


   E  E  +E   E  +H        E  E  E  E  +Q    Q
|--8--7--(7)------------|--8--7-----8--(8)---7--*|
|-------------8--(8)----|--------8--------------*|
|--9--7--(7)------------|--9--7-----9--(9)---7--*|
|-------------9--(9)----|--------9--------------*|
|-----------------------|-----------------------*|
|-----------------------|-----------------------*|
|
|  E  E  +E   E  +H        E  E  E  E  +Q    Q
|-12--------------------|-12-------12-(12)------*|
|----15-(15)-12-(12)----|----15-12----------15--*|
|-----------------------|-----------------------*|
|-----------------------|-----------------------*|
|-----------------------|-----------------------*|
|-----------------------|-----------------------*|


FIN!!!
- BUENO AQUI ABAJO ESTA EL SIGNIFICADO DE LAS LETRAS Y LOS SIGNOS...
- ESPERO QUE LES HAYA AGRADADO Y SOBRETODO QUE LE HAYAN ENTENDIDO...
- POR SI ALGUNA RAZON NO LE ENTIENDEN PUES HECHENME UN MAIL A: sNaKePiTs@guitar.com
- SI NO LE ENTIENDES, PUEDES BORRAR LAS LETRAS Y SE TE HARA COMO UNA TABLATURA NORMAL
- LOS VERE EN LA PROXIMA CANCION!!!...


NOTA!!!: PUEDEN UTILIZAR ESTA TAB PARA PUBLICARLA DONDE USTEDES
QUIERAN, PERO POR FAVOR LES RUEGO QUE ME DEN LOS CREDITOS COMO
TRANSCRIPTOR DE LA MISMA...GRACIAS!!!

NESTOR SADAO ARECHIGA CERVANTES (sNaKePiTs@guitar.com)


LEYENDA DE LAS NOTAS:

W = (REDONDA)     NOTA COMPLETA
H = (BLANCA)      MEDIA NOTA
Q = (NEGRA)       CUARTO DE NOTA
E = (CORCHEA)     OCTAVO DE NOTA
S = (SEMICORCHEA) DIECISEISAVA DE NOTA
T = (FUSA)        TREINTAIDOSAVA DE NOTA
X = (SEMIFUSA)    SESENTAICUATROAVA DE NOTA

a  =  ACCIACCATURA
+  =  LIGADURA
.  =  AUMENTA LA DURACION DE LA NOTA
.. =  AUMENTA LA DOBLE DE LA DURACION DE LA NOTA

LEYENDA DE LOS SIMBOLOS:

 h   - HAMMER-ON
 p   - PULL-OFF
 b   - BEND
 pb  - PRE-BEND
 r   - BEND RELASE(SI NO HAY UN NUMERO DESPUES DEL LA r, ENTONCES EL RELASE ES INMEDIATO)
 /  - SLIDE
 s   - LEGATO SLIDE
 S   - SHIFT SLIDE
<n>  - HARMONICOS NATURALES
[n]  - HARMONICOS ARTIFICIALES
n(n) - HARMONICO ATRAVEZ DE UN TAP
 ~   - VIBRACION
 tr  - TRINO
 T   - TAP
 TP  - TREM. PICKING
 PM  - PALM MUTING

/  - tremolo bar dip; n = amount to dip
 
  - TREMOLO BAR DOWN
 n/  - TREMOLO BAR UP
/n  - TREMOLO BAR INVERTED DIP
 =   - SONTENIENDO UN BEND; TAMBIEN ACTUA COMO UN CONECTOR PARA HAMMERS Y PULLS
 <>  - NIVEL DEL VOLUMEN
 x   - NOTA APAGADA
 o   - REPRESENTA UNA NOTA CORTADA


LEYENDA DEL PENTAGRAMA
 |  - COMPAS
||  - DOBLE COMPAS
||o - ES DONDE VA A COMENZAR CUANDO ALGO SE VA A REPETIR
o|| - ES DONDE VA A TERMINAR CUANDO ALGO SE VA A REPETIR
*|  - FIN DE LA CANCION
 :  - COMPAS LIBRE
 $  - SEGNO (AL VER ESTE SIGNO, TENEMOS QUE RETROCEDER HASTA VER EL SIGNO ANTERIOR $...)
 &  - CODA (SIGNIFICA QUE DEBES PASAR LA SIGUIENTE SIGNO &)

Fuente original: LaCuerda
Colaborador original: sNaKePiTs [Nestor Sadao Arechiga Cervantes]
Calificar esta versión:
Aviso: Este fichero es trabajo propio de su transcriptor y representa su interpretación personal de la canción. El material contenido en esta página es para exclusivo uso privado, por lo que se prohibe su reproducción o retransmisión, así como su uso para fines comerciales.
Más versiones de En Algun Lugar, Duncan Dhu
En Algun Lugar
acordes
En Algun Lugar (ver 2)
acordes
En Algun Lugar (ver 3)
acordes
En Algun Lugar (ver 4)
acordes
En Algun Lugar
tablatura
En Algun Lugar (ver 2)
tablatura
En Algun Lugar (ver 3)
tablatura
En Algun Lugar (ver 4)
tablatura
En Algun Lugar
bajo
En Algun Lugar (ver 2)
bajo
Descubre más canciones de Duncan Dhu