En Algun Lugar, Duncan Dhu (tablatura) (ver 2)

Autor: Anónimo | 45814 visualizaciones

Aqui jalen la nota tres veces un tono
y la cuarta vez 1 y medio tono  *el segundo cuadro es de referencia

-------------------   ------------------------
-10^-^-^-^^--------   -10b12b10b1210b1210b13--
-------------------   ------------------------
--------------sl/--   ------------------------
--------------sl/--   ------------------------
--------------sl/--   ------------------------

Aqui igual que arriba
-10^-^-^-^^-----------
----------------------
----------------------
---------------sl/----
---------------sl/----
---------------sl/----

Aqui el bend es muy lento
-------15^--------------
---12-------------------
------------------------
--------------sl/-------
--------------sl/-------
--------------sl/-------


Solo
--------------------------------------
----------3-3-3-------3---------------
----------3^3^3^p2----2h3p2p0--------0
--------------------------------------
--------------------------------------
--------------------------------3vib--
                         ^aqui lleva mas cambios (pull off y hammers)


            Aqui lo pueden pasar a las 
            primeras cuerdas   
---0-0------^^^^^^^^^^^^^^^^^^^^^^^^----------------^^^^^^^^^^^^^^^-
--3/5-5^----13-15-13--------------------------------3-5-3-5-3-5-3-5-
--3/4-------12-12-12--12-12-11-12-11----------------3-4-3-4-3-4-3-4-
----------------------12-12----12-----------------------------------
--------------------------------------------------------------------
--------------------------------------slide///--0-------------------
                                                    Tremolo picking
                                                     tocar lo mas rapido posible

------------------------
------5-----------------
3^5^3-------3vib3p2p0---
------------------------
------------------------
------------------------

Usen el primer tab que mandaron, esto es solo el solo
NOTAS:
Los slides no son pick scrapes solo pongan el dedo indice sobre
las tres ultimas cuerdas y deslicen hacia arriba (mas o menos por el 
doceavo traste) 
probablemente falten algunos detalles
con razon nadie lo sacaba
esta MUY dificil solo tiene esta tab una aseguramiento como del 80

Fuente original: LaCuerda
Colaborador original: Mirsha Carrillo Gonzalez [mirsha_joker@hotmail.com]
Calificar esta versión:
Aviso: Este fichero es trabajo propio de su transcriptor y representa su interpretación personal de la canción. El material contenido en esta página es para exclusivo uso privado, por lo que se prohibe su reproducción o retransmisión, así como su uso para fines comerciales.
Más versiones de En Algun Lugar, Duncan Dhu
En Algun Lugar
acordes
En Algun Lugar (ver 2)
acordes
En Algun Lugar (ver 3)
acordes
En Algun Lugar (ver 4)
acordes
En Algun Lugar
tablatura
En Algun Lugar (ver 2)
tablatura
En Algun Lugar (ver 3)
tablatura
En Algun Lugar (ver 4)
tablatura
En Algun Lugar
bajo
En Algun Lugar (ver 2)
bajo
Descubre más canciones de Duncan Dhu