En Algun Lugar, Duncan Dhu (tablatura) (ver 4)

Autor: anthony25 | 38132 visualizaciones

Bueno... espero que les guste la canción incluso como otros
  autores de tablaturas no lo hacen sobre esta canción yo incluí 
  el solo de la misma... espero les guste...
  La canción tiene lo que es la letra, arriba los acordes,
  enseguida las tablaturas y el solo...

   Alguna duda o comentario no duden en visitar mi correo:
   markanthonyperfect@hotmail.com


      G     D         Em         G D Em
En algún lugar de un gran país
     G     D     Em   G D Em     
Olvidaron construir
      G     D      Em            G D Em       
Un hogar donde no queme el Sol 
        G         D        Em  G D Em    
Y al nacer no haya que morir.

         Bm            
Y en la sombra 
 D             G   D  Em  
Mueren genios sin saber
    G D Em                                          
E|-----------------------------------------------------|
B|--8--7?5--------------13-12--------------------------|
G|------------------12---------------------------------|
D|-----------------------------------------------------|
A|-----------------------------------------------------|
E|-----------------------------------------------------|
       Bm    C          C
De su magia concedida, sin pedirlo
 C                       G
Mucho tiempo antes de nacer.
      G        D         Am        C                   
E|----------7-8-10--10---8-7-8-7-------8-7---8-7-------|
B|--8-8--10-----------------------8--------8-----8-----|
G|-----------------------------------------------------|
D|-----------------------------------------------------|   x4
A|-----------------------------------------------------|
E|-----------------------------------------------------|

               D        Am           
No hay camino que llegue hasta aquí
    C               G     
Y luego pretenda salir
             D      Am           
Con el fuego de el atardecer
C               Em Em Em
Arde la hierba.

(Ahora los acordes siguientes en el solo son los mismos que al principio {Em G y D})

E|----------------------10b12r11b12r10b12~~--------15b17-|
B|--10b12r11b12r10b12~~------------------------12--------|
G|-------------------------------------------------------|
D|-------------------------------------------------------|
A|-------------------------------------------------------|
E|-------------------------------------------------------|

E|-------------------------------------------------------|
B|---------------------------------10--------------------|
G|--------------------7b9--5-10-12----10--8-8-8-7--------|
D|--7b9-9-9r7--5/7-5----------------------7-7-7-7-9------|
A|-------------5/7-5--------------------------------9\---|
E|-------------------------------------------------------|

E|-------------------------------------------------------|
B|--|----5-5-5-5|----|--------5--------------------------|
G|--|7b9--------|--x5|-----------------------------------|
D|-----------------------7b8-----8r7p5-------------------|
A|--------------------------------------7\---------------|
E|-------------------------------------------------------|


      G     D         Em         G D Em
En algún lugar de un gran país
     G     D      Em   G D Em     
Olvidaron construir
      G     D      Em            G D Em       
Un hogar donde no queme el Sol 
        G         D        Em  G D Em    
Y al nacer no haya que morir.

      Bm    C               
Un silbido cruza el pueblo
G  D Em
Y se ve
    G D Em                                          
E|-----------------------------------------------------|
B|--8--7?5--------------13-12--------------------------|
G|------------------12---------------------------------|
D|-----------------------------------------------------|
A|-----------------------------------------------------|
E|-----------------------------------------------------|

     Bm           C       C         
Un jinete que se marcha, con el viento
 C                             G
Mientras grita que no va a volver.

E|----------7-8-10--10---8-7-8-7-------8-7---8-7-------|
B|--8-8--10-----------------------8--------8-----8-----|
G|-----------------------------------------------------|
D|-----------------------------------------------------|   x12
A|-----------------------------------------------------|
E|-----------------------------------------------------|

              D            Am      
Y la tierra aquí es de otro color 
   C                 G   
El polvo no te deja ver
              D        Am           
Los hombres ya no saben si lo son
 C                 G    
Pero lo quieren creer.
               D       Am           
Las madres que ya no saben llorar
 C                  G   
Ven a sus hijos partir
              D        Am         
La tristeza aquí no tiene lugar
 C                     G    
Cuando lo triste es vivir.

Na Na Na...
Calificar esta versión:
Aviso: Este fichero es trabajo propio de su transcriptor y representa su interpretación personal de la canción. El material contenido en esta página es para exclusivo uso privado, por lo que se prohibe su reproducción o retransmisión, así como su uso para fines comerciales.
Más versiones de En Algun Lugar, Duncan Dhu
En Algun Lugar
acordes
En Algun Lugar (ver 2)
acordes
En Algun Lugar (ver 3)
acordes
En Algun Lugar (ver 4)
acordes
En Algun Lugar
tablatura
En Algun Lugar (ver 2)
tablatura
En Algun Lugar (ver 3)
tablatura
En Algun Lugar (ver 4)
tablatura
En Algun Lugar
bajo
En Algun Lugar (ver 2)
bajo
Descubre más canciones de Duncan Dhu