Through The Fire And Flames, Dragonforce (tablatura) (ver 7)

Autor: luisrocker | 26236 visualizaciones

Solo de teclado del el principio: 
|---------------------------------| -
|-------------------------6-------| |
|-5---7---8---5---7---8-------7---| |
|---5---5---5---5---5---5---5---5-| |
|---------------------------------| |
|---------------------------------| |
                                    X7
|-6-------------------------------| |
|-----8---9---6---8-------6-------| |
|---------------------8-------7---| |
|---5---5---5---5---5---5---5---5-| |
|---------------------------------| |
|---------------------------------| -  

En la 7 repetición la parte de abajo no se repite y se hace esto
|-6---------------6h8p6-----------|
|---8-----------8-------8-------8-|
|-----8-5---5h8-----------8-5-8---|
|---------5-----------------------|
|---------------------------------|
|---------------------------------|

Solo intro:
|-11-11-11-11-8-8-11-11-11-11-8-8-11-11-8-8--|
|--------------------------------------------|
|--------------------------------------------|
|--------------------------------------------|x2
|--------------------------------------------|
|--------------------------------------------|

|-15-15-15-15-11-11-15-15-15-15-11-11-15-15-11-11--|
|--------------------------------------------------|
|--------------------------------------------------|
|--------------------------------------------------|x2
|--------------------------------------------------|
|--------------------------------------------------|

|-13-13-13-13-8-8-13-13-13-13-8-8-13-13-8-8--|
|--------------------------------------------|
|--------------------------------------------|
|--------------------------------------------|x2
|--------------------------------------------|
|--------------------------------------------|

|-11-11-11-11-8-8-11-11-11-11-8-8-11-11-8-8---8-11-8-13-8-14-8-15-8-16-|
|----------------------------------------------------------------------|
|----------------------------------------------------------------------|
|----------------------------------------------------------------------|
|----------------------------------------------------------------------|
|----------------------------------------------------------------------|

|-11-11-11-11-8-8-11-11-11-11-8-8-11-11-8-8--|
|--------------------------------------------|
|--------------------------------------------|
|--------------------------------------------|x2
|--------------------------------------------|
|--------------------------------------------|

|-15-15-15-15-11-11-15-15-15-15-11-11-15-15-11-11--|
|--------------------------------------------------|
|--------------------------------------------------|
|--------------------------------------------------|x2
|--------------------------------------------------|
|--------------------------------------------------|





|-13-13-13-13-8-8-13-13-13-13-8-8-13-13-8-8--|
|--------------------------------------------|
|--------------------------------------------|
|--------------------------------------------|x2
|--------------------------------------------|
|--------------------------------------------|

|-11p8---8h9p8---11p8---8h9p8--8-11p8------|
|------9-------9------9---------------9----|
|------------------------------------------|
|---------------------------------------7L-|
|------------------------------------------|
|------------------------------------------|


Verso 1 (parte 3):
                            |-----------------x2----------------------------|
|----------------------------------t11p8-t11p8-t11p8-t11p8-t11p8-t11p8-t11p8-t11p8-|
|-9-0-0-8-0-0-6-0-9-0-0-8-0-0-6-0--------------------------------------------------|
|----------------------------------------------------------------------------------|
|----------------------------------------------------------------------------------|
|----------------------------------------------------------------------------------|
|----------------------------------------------------------------------------------|

|-------------------------------------------8/10/11/13/15/16/18/23-|
|-9-----8-----6----9------8----6-----11----------------------------|
|---8-8---8-8---8----8-8---8-8---8---------------------------------|
|------------------------------------------------------------------|
|------------------------------------------------------------------|
|------------------------------------------------------------------|

Verso 1 (parte 4):
|-----------------------------6688------6688------6688-----6688-6----------|
|-8-----6-----8----11----6699------6699------6699-----6699-----------6b----|
|---8-8---8-8---8----------------------------------------------------------|
|--------------------------------------------------------------------------|
|--------------------------------------------------------------------------|
|--------------------------------------------------------------------------|

Solo después del coro:
|------------------------------------------------------13v----------------/11----11-13-|
|-------------------------8----------------88----88-11-----8---------8-11-----11-------|
|-8-8-7-8-7-----8-8-5-7-8---8-8-77-88-1010----88-------------8-------------------------|
|-----------8-5------------------------------------------------8-8-8-------------------|
|--------------------------------------------------------------------------------------|
|--------------------------------------------------------------------------------------|

|-/15-13p11--/18-18/15/18-18-15-18/15-15p13-15p13-15p13-15p13-15p11-15p13-15p11/6-|
|----------11---------------------------------------------------------------------|
|---------------------------------------------------------------------------------|
|---------------------------------------------------------------------------------|
|---------------------------------------------------------------------------------|
|---------------------------------------------------------------------------------|

|-------------------------------------------------------------------------------|
|------------------------------------t11p8-t11p8-t11p8-t9p4-t9p4-t9p4-t8p4-t8p4-|
|-8-8-77-88-77----00-8-8-7-/8-10-/12--------------------------------------------|
|--------------88---------------------------------------------------------------|
|-------------------------------------------------------------------------------|
|-------------------------------------------------------------------------------|

|-----------13v-----------------------------------t20p15-t20p15-t20p15-t20p15-t20p15-|
|--------11-----8-8------8--------8-8------8-11-11-----------------------------------|
|-/12-12------------8-10---10-8-------8-10-------------------------------------------|
|-------------------------------8----------------------------------------------------|
|------------------------------------------------------------------------------------|
|------------------------------------------------------------------------------------|

|-t20p15-t20p15-t20p15--/13-13-13-/15-/13-/11-----11-|
|---------------------------------------------/11----|
|----------------------------------------------------|
|----------------------------------------------------|
|----------------------------------------------------|
|----------------------------------------------------|


Verso 2 (parte 3):
                            |-----------------x2----------------------------|
|----------------------------------t11p8-t11p8-t11p8-t11p8-t11p8-t11p8-t11p8-t11p8-|
|-9-0-0-8-0-0-6-0-9-0-0-8-0-0-6-0--------------------------------------------------|
|----------------------------------------------------------------------------------|
|----------------------------------------------------------------------------------|
|----------------------------------------------------------------------------------|
|----------------------------------------------------------------------------------|

|---------------------------------------------|
|-9-----8-----6----9------8----6-----11-------|
|---8-8---8-8---8----8-8---8-8---8------------|
|---------------------------------------------|
|---------------------------------------------|
|---------------------------------------------|

Verso 2 (parte 4):
|----------------------------------------------------------------------------------16b-|
|-8-----6-----8-----------------88-99---------88-99---------88-99---------88-99-6------|
|---8-8---8-8---8--8----55-1010-------55-1010-------55-1010-------55-1010--------------|
|------------------8-------------------------------------------------------------------|
|------------------6-------------------------------------------------------------------|
|--------------------------------------------------------------------------------------|

Solo después del coro:
|----------------------------------------------------------------------/11----11-13-|
|-------------------------8-------------8---8-----------8---------8-11-----11-------|
|-8-8-7-8-7---0-8-8-5-7-8---8-8--7-8-10---8---10-8-10-----8-------------------------|
|-----------8-----------------------------------------------8-8-8-------------------|
|-----------------------------------------------------------------------------------|
|-----------------------------------------------------------------------------------|

|-/15-13p11---------------------------------------------------------------|
|-----------11--11-11-8-11-11-8------8----------------------------------8-|
|-------------------------------10-8---8---7---7-8-7-8-7-5---7-8-7-8-10---|
|----------------------------------------8-----------------5--------------|
|-------------------------------------------------------------------------|
|-------------------------------------------------------------------------|

|--------------------------------------------------------------13v---------------------|
|-t11p8-t11p8-t11p8-----------------------------------------11-----8-8--8----8---------|
|-------------------t13p10-t13p10-t13p10-t12p8-t12p8-/12-12---------------10---10-8----|
|-----------------------------------------------------------------------------------10-|
|--------------------------------------------------------------------------------------|
|--------------------------------------------------------------------------------------|

|---------------------15p11--11-13p10-11p8-8-11p8-10p6---6-/13-13-13-/15-/13-/11---16-|
|-------------------13-----13-------------9------------8------------------------11----|
|-12-12--10-12-10-12------------------------------------------------------------------|
|-------------------------------------------------------------------------------------|
|-------------------------------------------------------------------------------------|
|-------------------------------------------------------------------------------------|

Who-o (parte)
|-11-10-8----15-13-11----11-10-11-10-8----11-10-8----15-13-11----11-10-11-10-8--|
|-------------------------------------------------------------------------------|
|-------------------------------------------------------------------------------|
|-------------------------------------------------------------------------------|
|-------------------------------------------------------------------------------|
|-------------------------------------------------------------------------------|

Twin Pre-Solo:
|-----------------------------------------151515-131313-1111-131313-111111------|
|-11h13-13131313-11h13-16p13-131313131313----------------------------------1515-|
|-------------------------------------------------------------------------------|
|-------------------------------------------------------------------------------|x4
|-------------------------------------------------------------------------------|
|-------------------------------------------------------------------------------|

|--------------------------------6/8-6/8-11/13-11/13-13/15-13/15-6/8-6/8--88-66-|
|-6b-8--9-8-6---6-6--8-6--------------------------------------------------------|
|-------------8----------8p5---5------------------------------------------------|
|----------------------------8--------------------------------------------------|
|-------------------------------------------------------------------------------|
|-------------------------------------------------------------------------------|
|----6666-8-6-8-11-11-8-8--6-8-11--6---------------------------------------------------|
|-66---------------------------------8/11-8---6h8p6h8-0--888-6-8-11p8-6-888-6-8-11p8-6-|
|-------------------------------------------8------------------------------------------|
|--------------------------------------------------------------------------------------|
|--------------------------------------------------------------------------------------|
|--------------------------------------------------------------------------------------|

|-11----11-13-15p13p11--------|
|----11----------------13-----|
|-------------------------15T-|
|-----------------------------|
|-----------------------------|
|-----------------------------|

|-----------------------------------------151515-131313-1111-131313-111111------|
|-11h13-13131313-11h13-16p13-131313131313----------------------------------1515-|
|-------------------------------------------------------------------------------|
|-------------------------------------------------------------------------------|x4
|-------------------------------------------------------------------------------|
|-------------------------------------------------------------------------------|

|-----------------------------------------------------------------------------------6-|
|-------------------------------------------------------9-8-6-8--------6-8-9-8-6-8-9--|
|-5-5-5-5-8-5-5-7-0-7-------7br-----5-7-8-7-5-7-5---7-8--------5-5-7-8----------------|
|----------------8----5-6-8-----7-8---------------8-------------8---------------------|
|-------------------------------------------------------------------------------------|
|-------------------------------------------------------------------------------------|

|---6-------------------13--13-11-10-11---13----15----8---10-------------------|
|-8---8-6-8-6--------------------------------13----13---8----8-9-6-------------|
|-------------8/10-8/10--------------------------------------------8-5-8---5---|
|------------------------------------------------------------------------8---8-|
|------------------------------------------------------------------------------|
|------------------------------------------------------------------------------|

|-------------------------8-11-8-11-|
|-----------------6---6-8-----------|
|-----5---5-8-5-8---8---------------|
|-5-8---8---------------------------|
|-----------------------------------|
|-----------------------------------|

Solo de Guitarra Puente:
|-15-1515-15-13-11----11-13-15-1515-15-13-11-18-15-15-1515-15-13-11----11-13-13p15h13-|
|------------------13-----------------------------------------------13----------------|
|-------------------------------------------------------------------------------------|
|-------------------------------------------------------------------------------------|
|-------------------------------------------------------------------------------------|
|-------------------------------------------------------------------------------------|

|-11----11-13-15-18p15-13-15-15--15-1515-15-13-11----11-13-15-1515-15-13-11-18-15-|
|----13-------------------------------------------13------------------------------|
|---------------------------------------------------------------------------------|
|---------------------------------------------------------------------------------|
|---------------------------------------------------------------------------------|
|---------------------------------------------------------------------------------|

|-15-1515-15-13-11----11-13-15p13-11----11-13-15p13-8-11-13-15--15p13-11----11-13-11---|
|------------------13----------------13----------------------------------13---------13-|
|---------------------------------------------------5-8--10-12-------------------------|
|--------------------------------------------------------------------------------------|
|--------------------------------------------------------------------------------------|
|--------------------------------------------------------------------------------------|

|-15-13-11-8--------x-------x--------x-------x--|
|------------------x-------x--------x-------x---|
|-12-10-8--5------x-------x--------x-------x----|
|----------------x-------x--------x-------x-----|
|---------------x-------x--------x-------x------|
|--------------x-------x--------x-------x-------|





Guerra de solos:

Solo de Herman le:
|----------------------------------------------------------------10-11-10-11-13-11-13b-|
|-------------------------------------------------------13-11-13-----------------------|
|----------------------------------10-12-10-12-13-12-13--------------------------------|
|-13-12-10-12-10----------10-12-13-----------------------------------------------------|
|----------------11-10-11--------------------------------------------------------------|
|--------------------------------------------------------------------------------------|

|-13----------------------13-11-13-15-13-15-16-13-16-15-18-15-13-11-10-11-18br-|
|----16-15-13----13-15-16------------------------------------------------------|
|-------------13---------------------------------------------------------------|
|------------------------------------------------------------------------------|
|------------------------------------------------------------------------------|
|------------------------------------------------------------------------------|

|-20-18-20-16-20-15-13-11-10-11-10-13-15-16-18-18-18-16-18-15-18-13-11-10-8-10-11-13-16|
|--------------------------------------------------------------------------------------|
|--------------------------------------------------------------------------------------|
|--------------------------------------------------------------------------------------|
|--------------------------------------------------------------------------------------|
|--------------------------------------------------------------------------------------|

|-8-11-13-11-13-15-13-11-13-11-10-11-10-8---------------------------------------8-10-|
|-----------------------------------------11-8-9-11-9-8------------------8-9-11------|
|-------------------------------------------------------10-8-7----7-8-10-------------|
|--------------------------------------------------------------10--------------------|
|------------------------------------------------------------------------------------|
|------------------------------------------------------------------------------------|

|-20-18/23-18-20-18-20/18-15/13-------/15-22-22/6-/23-22-20/18-/13-13/1-15-13/20-20-|
|-------------------------------13/11-----------------------------------------------|
|-----------------------------------------------------------------------------------|
|-----------------------------------------------------------------------------------|
|-----------------------------------------------------------------------------------|
|-----------------------------------------------------------------------------------|

|--------------11-15-20/15-11----------11-20/15-11---11-/15-20/15-11--11--11-20--11-20-|
|-----------13----------------13----13------------/13---------------13--13-----13------|
|--------12----------------------12----------------------------------------------------|
|-/10-13-------------------------------------------------------------------------------|
|--------------------------------------------------------------------------------------|
|--------------------------------------------------------------------------------------|

|-t20p15-t20p15-t20p15p13h15-t20p15-t20p15-t20p15p13h15-t20p15-t20p15-t20p15p13h15-17b-|
|--------------------------------------------------------------------------------------|
|--------------------------------------------------------------------------------------|
|--------------------------------------------------------------------------------------|
|--------------------------------------------------------------------------------------|
|--------------------------------------------------------------------------------------|

Solo de Sam toman:                                               |---------x3-------|
|----------------------------------10-12-13-15-/18-18-20-18-15-11-20p15p11-20p11h15-|
|----------------------------11-13--------------------------------------------------|
|----------------10-12-10-12--------------------------------------------------------|
|----------10-12--------------------------------------------------------------------|
|-10-11-13--------------------------------------------------------------------------|
|-----------------------------------------------------------------------------------|

|-20202020-18-15/18/15-13-15-20p11-20p11-18p11-18p11-20p11-20p11-16p11-16p11-20p11-20p11-|
|---------------------------------------------------------------------------------------------|
|---------------------------------------------------------------------------------------------|
|---------------------------------------------------------------------------------------------|
|---------------------------------------------------------------------------------------------|
|---------------------------------------------------------------------------------------------|

|-18p11-18p11-20p11-20p11-15p11-15p11-20p16-11----------11-16-18-16-18-20-23-16-|
|----------------------------------------------13----13-------------------------|
|-------------------------------------------------13----------------------------|
|-------------------------------------------------------------------------------|
|-------------------------------------------------------------------------------|
|-------------------------------------------------------------------------------|

|----18----18----22----22-22br---------------------10-16brbr-|
|-18----18----18----18--------------------10-11-13-----------|
|---------------------------------8-10-12--------------------|
|------------------------------12----------------------------|
|------------------------------------------------------------|
|------------------------------------------------------------|

Solo de Herman le:
|-13b-13b-13-11-13-11------------------------------------------11-13----13v-|
|---------------------13-11v--------11-------------------11-13-------11-----|
|-----------------------------10h12----12-11-10----10-12--------------------|
|-----------------------------------------------13--------------------------|
|---------------------------------------------------------------------------|
|---------------------------------------------------------------------------|

|-15-16-18-16-18b-18-16-15-16p15-11----------13-11--13-11-13br-11----|
|-----------------------------------11----11----------------------11-|
|--------------------------------------12----------------------------|
|--------------------------------------------------------------------|
|--------------------------------------------------------------------|
|--------------------------------------------------------------------|

|----18-11----15------------11-13-15p13-11-13-18----------------13brbrbr-15brbrbr-|
|-16-------13----13-11-9-11----------------------10b------------------------------|
|----------------------------------------------------10b-8b-----------------------|
|-----------------------------------------------------------10b-------------------|
|---------------------------------------------------------------------------------|
|---------------------------------------------------------------------------------|

|-20-16----------16-20-16----20-16----------16-20-16----20-16-15-11-----------|
|-------20-16-20----------20-------20-16-20----------20-------------t15p13p11-|
|-----------------------------------------------------------------------------|
|-----------------------------------------------------------------------------|
|-----------------------------------------------------------------------------|
|-----------------------------------------------------------------------------|

|--------------------------------11-18-16-15-13-11-10----------------------------|
|-----------------------------11----------------------13-11-9------------8-9-11--|
|-t13p10p8-t10h13p12-10----12---------------------------------12-10-8-10---------|
|-----------------------13-------------------------------------------------------|
|--------------------------------------------------------------------------------|
|--------------------------------------------------------------------------------|

|-8-10-11-10-8---------8-10b-|
|--------------11-9-11-------|
|----------------------------|
|----------------------------|
|----------------------------|
|----------------------------|

Solos de Herman y Sam:
|-/11-11-8-8-11-13-15v-11-10-8p7------------------------------/11-11-8-11-11-8-11-8-|
|--------------------------------8---5h7p5------------------------------------------|
|----------------------------------8-------8-10br--10-8-12-8v-----------------------|
|-----------------------------------------------------------------------------------|
|-----------------------------------------------------------------------------------|
|-----------------------------------------------------------------------------------|

|-11-13---11---8-8-----------------------------------------------------------11-10-|
|----------------------------------------------------------------t13p9-t15p9-------|
|--------------------------------8-------8-10----8-10-12-8-10-12-------------------|
|--------------------------10-12---10-12------12-----------------------------------|
|--------------------12-13---------------------------------------------------------|
|----------------------------------------------------------------------------------|

                                                                     |---x3----|
|--------------------15-11-----------------------------------------------------|
|-13-9-t15p11-t15p11-------13-9------------------------------------------------|
|-------------------------------88------1010------1212------1010-------t13p8p5-|
|----------------------------------1010------1010------1010------1010----------|
|------------------------------------------------------------------------------|
|------------------------------------------------------------------------------|

|-------8-10-11-10-8-10-8------------------------------------/8-6-8-6----------|
|-9-8-9-------------------9-8-------8-99-8---88-----------------------8-8-11br-|
|-----------------------------8-7-8--------8----88-7-8-7-5-5-------------------|
|------------------------------------------------------------------------------|
|------------------------------------------------------------------------------|
|------------------------------------------------------------------------------|

|-------------------------------------------------------|
|-------------------------------------------------------|
|-8-7-5-5v-----------8-10-12-13-t13p8-t13p8-t13p8-t13p8-|
|----------5-8-10-12------------------------------------|
|-------------------------------------------------------|
|-------------------------------------------------------|

|-----------------------------------------------------------------|
|-t13p9p8-t13p9p8-t13p9p8-t13p9p8-t13p9p8-t13p9p8-t13p9p8-t13p9p8-|
|-----------------------------------------------------------------|
|-----------------------------------------------------------------|
|-----------------------------------------------------------------|
|-----------------------------------------------------------------|

Solo intro 2:
|-11-11-11-11-8-8-11-11-11-11-8-8-11-11-8-8--|
|--------------------------------------------|
|--------------------------------------------|
|--------------------------------------------|x2
|--------------------------------------------|
|--------------------------------------------|

|-15-15-15-15-11-11-15-15-15-15-11-11-15-15-11-11--|
|--------------------------------------------------|
|--------------------------------------------------|
|--------------------------------------------------|x2
|--------------------------------------------------|
|--------------------------------------------------|

|-13-13-13-13-8-8-13-13-13-13-8-8-13-13-8-8--|
|--------------------------------------------|
|--------------------------------------------|
|--------------------------------------------|x2
|--------------------------------------------|
|--------------------------------------------|

|-11-11-11-11-8-8-11-11-11-11-8-8-11-11-8-8--|
|--------------------------------------------|
|--------------------------------------------|
|--------------------------------------------|
|--------------------------------------------|
|--------------------------------------------|

|----------------------------------------|
|----------------------------------------|
|------7-8-7-8-10-8-10-12-10-8-10-8------|
|-8-10------------------------------10-8-|
|----------------------------------------|
|----------------------------------------|

|-11-11-11-11-8-8-11-11-11-11-8-8-11-11-8-8--|
|--------------------------------------------|
|--------------------------------------------|
|--------------------------------------------|x2
|--------------------------------------------|
|--------------------------------------------|

|-15-15-15-15-11-11-15-15-15-15-11-11-15-15-11-11--|
|--------------------------------------------------|
|--------------------------------------------------|
|--------------------------------------------------|x2
|--------------------------------------------------|
|--------------------------------------------------|

|-13-13-13-13-8-8-13-13-13-13-8-8-13-13-8-8--|
|--------------------------------------------|
|--------------------------------------------|
|--------------------------------------------|x2
|--------------------------------------------|
|--------------------------------------------|
|-------11-15h16p15-11--11-------------------------11--15-11-16p15--16p15--16p15--16p15|
|-----13--------------13--13--13-----------------13--13-----------16-----16-----16-----|
|---12----------------------12--12--12--------12---------------------------------------|
|-13------------------------------13--13-10-13-----------------------------------------|
|--------------------------------------------------------------------------------------|
|--------------------------------------------------------------------------------------|

Fin del solo:
|-15-18-18--15-18-18--15-18-18-18--15-15-18-18-15-13-11---|
|---------------------------------------------------------|
|---------------------------------------------------------|
|---------------------------------------------------------|
|---------------------------------------------------------|
|---------------------------------------------------------|

|-13-15-15--13-15-15--13-15-15--13-15-15-16-15-13-11---13-13-13-13-13?13?13?13-13-13-13|
|--------------------------------------------------------------------------------------|
|--------------------------------------------------------------------------------------|
|--------------------------------------------------------------------------------------|
|--------------------------------------------------------------------------------------|
|--------------------------------------------------------------------------------------|

|-t18p15-t18p15-t18p15-t18p15-t18p15-t18p15-t18p15-t18p15-|
|---------------------------------------------------------|
|---------------------------------------------------------|
|---------------------------------------------------------|x6
|---------------------------------------------------------|
|---------------------------------------------------------|

Final:
|-16-15-13----15-13-------15b------11h13p11----------------------|
|----------16-------16-15-------7b----------13-11----11-13-13----|
|-13-12-10----12-10-------------------------------12-------------|
|----------13-------13-12----------------------------------------|
|----------------------------------------------------------------|
|----------------------------------------------------------------|
Calificar esta versión:
Aviso: Este fichero es trabajo propio de su transcriptor y representa su interpretación personal de la canción. El material contenido en esta página es para exclusivo uso privado, por lo que se prohibe su reproducción o retransmisión, así como su uso para fines comerciales.