Through The Fire And Flames, Dragonforce (bajo)

Autor: fherxo | 28429 visualizaciones

Intro:
G|-------------------------------|-------------------------------|
D|-------------------------------|-------------------------------|
A|---3--xxxx3--------------------|---3-xxxx3---------------------|
E|----------------6~----4-----3~-|--------------4~---3---3-3-3---|

Main Riff:
G|---------------------------------------------------------------|
D|.--------------------------------------------------------------|
A|.-3-3-3-3-3-3-3-3-3-3-3-3-10-10-10-10-10-10-10-10-10-10-10-10--|
E|---------------------------------------------------------------|

G|-------------------------------------------------------|
D|------------------------------------------------------.|
A|--8-8-8-8-8-8-8-8-8-8-8-8-6-6-6-6-6-6-5-5-5-5-5-5-1-3-.|
E|-------------------------------------------------------|

Verse:
G|---------------------------------|
D|---------------------------------|
A|--3------------------3-3------3--|
E|--------4------6---------4-4-----|

G|---------------------------------------------------------------|
D|.--------------------------------------------------------------|
A|.-3-3-3-3-3-3-3-3-3-3-3-3--3--3--------------------------------|
E|--------------------------------4-4-4-4-4-4-4-4-4-4-4-4--4--4--|

G|---------------------------------------------------------------|
D|--------------------------------------------------------------.|
A|--------------------------------3-3-3-3-3-3-3-3-3-3-3-3--3--3-.|
E|--6-6-6-6-6-6-6-6-6-6-6-6--6--6--------------------------------|

G|-----------------------------|
D|-----------------------------|
A|-----------------------------|
E|--4-4-4-4-4-4-4-4-4-4-4-4-4--|

Chorus:
G|---------------------------------------------------------------|
D|----------------4---6----------3/5-----------------------------|
A|--6-----------4---4----3-3-3-3--------------6/8----------------|
E|-----6-6-6-4------------------------6-6-6-6------4-4-4-4-4-4-4-|


Interlude:
G|---------------------------------------------------|
D|---------------------------------------------------|
A|----------------------3~-----------------------3~--|
E|--0-1----0-1----0-1--------0-1----0-1----0-1-------|

Solo Break:
G|----------------------------------|
D|----------------------------------|
A|--3--3--3-----xxxx3--3--3---------|
E|-----------4~--------------4~-4~--|

Second Interlude:
G|-----------------|----------------|
D|-----------------|----------------|
A|-------------3~--|-------------3--|
E|--3~--6~--4~-----|--3~--6~--4~----|

Outro:
G|-----------------------------|-----------------------------|
D|-----------------------------|-----------------------------|
A|--3-3-3--3-3--3-3--3-3-3--3--|--3-3-3--3-3--3-3--3-3-3--3--|
E|-----------------------------|-----------------------------|

G|--------------------------------|-------------------------|
D|--------------------------------|-------------------------|
A|--3-3-3--3-3--3-3--3-3-3--3--3--|--7-7--5-5--3-3--1-1--0--|
E|--------------------------------|-------------------------|

G|---------------|
D|---------------|
A|--/--3-3-3-3b--|
E|---------------|

Song Order

Intro
Verse
Chorus x4
Main Riff Through Guitar Solo
Verse
Chorus x4
Main Riff Through Guitar Solo
Interlude
Main Riff Through Guitar Solo
Solo Break
Main Riff Through Guitar Solo
Second Interlude
Chorus x2
Main Riff Through Guitar Solo
Outro
Calificar esta versión:
Aviso: Este fichero es trabajo propio de su transcriptor y representa su interpretación personal de la canción. El material contenido en esta página es para exclusivo uso privado, por lo que se prohibe su reproducción o retransmisión, así como su uso para fines comerciales.