Through The Fire And Flames, Dragonforce (tablatura)

Autor: jsnjason | 34296 visualizaciones

Tuning - Standard

E|-------------------------------------------------------------------------|
B|-------------------------------------------------------------------------|
G|3-5-5-5-5-5-3-5-8-5-5-5-5-5-5-5-12-12-12-10-10-10-8-8-10-10-10-8-8-8-7-7-|
D|-------------------------------------------------------------------------|
A|-------------------------------------------------------------------------|
E|-------------------------------------------------------------------------|
  ^ Lightly Muted
E|--------------------------|
B|--7-10p9p7h5--5-8p7p5h3---|
G|--------------------------|
D|--------------------------|
A|--------------------------|
E|--------------------------|

E|----------------------------------------------------|
B|-10p10h12p10h10h12p10p10p13-10h10h12-7*-10p10h13-5*-|
G|----------------------------------------------------|
D|----------------------------------------------------|
A|----------------------------------------------------|
E|----------------------------------------------------|

E|-------------------------------------------------------------------------|
B|-------------------------------------------------------------------------|
G|3-5-5-5-5-5-3-5-6-5-5-5-5-5-5-5-12-12-12-10-10-10-8-8-10-10-10-8-8-8-7-7-|
D|-------------------------------------------------------------------------|
A|-------------------------------------------------------------------------|
E|-------------------------------------------------------------------------|




E|------------------------------------------------------------------------|
B|----6-------------------------------------------------------------------|
G|-------5----3*^-------------08p10p11---10h11p12h14p13-5*-10p11p12h14-7*-|
D|----------4---------08p10p11--------------------------------------------|
A|------------------------------------------------------------------------|
E|-0---00-00--------------------------------------------------------------|
   .   .. ..   
E|-----------------12-----------------15--------|
B|-10-10-13-12-10-8--10-10-13-12-10-8-----------|
G|----------------------------------------------|
D|----------------------------------------------|
A|----------------------------------------------|
E|----------------------------------------------|


E|--------------------<-<-<->------------------------------|
B|-10-10-13-12-10-8---<-<->->-------------------<->->-<----|
G|--------------------<-<->->-10-10-13-12-10-8--<-<->->----|
D|----------------------------------------------<-<->->----|
A|---------------------------------------------------------|
E|---------------------------------------------------------|

Comentarios del colaborador: Me encanta este tema, ya que aca no esta, lo comparto con ustedes. fuente: www.ultimateguitar.com

Calificar esta versión:
Aviso: Este fichero es trabajo propio de su transcriptor y representa su interpretación personal de la canción. El material contenido en esta página es para exclusivo uso privado, por lo que se prohibe su reproducción o retransmisión, así como su uso para fines comerciales.