Fallido Intento, Don Tetto (tablatura)

Autor: blink-1-8-2 | 38437 visualizaciones



por blink1-8-2 
juan de al cruz es pero que les guste
guitarra principal.

intro

e------------------------|
b------------------------|
g------7-7-12-12-9-7-7s9-|  (X2)
d--9-9-7-7-12-12-9-7-7s9-|
a--9-9-5-5-10-10-7-5-5s7-|
E--7-7-------------------|


estrofa:


                            |-----PM-----------------------|
e----------------------------------------------------------|
b----------------------------------------------------------|
g----------------------------------------------------------|
d----9-9h7-----9-9-9-9h7----5-5-5-5-5-5-5-5--9-9-9-9h7-----|
a----------9-------------9--5-5-5-5-5-5-5-5------------9---|
E--7---------7--------------3-3-3-3-3-3-3-3----------------|

e---------------------------------------|
B---------------------------------------|
G--x7x7x7x7x7x7x7x7---------------------|  (X2)
D--x7x7x7x7x7x7x7x7-xx7xx7x--9-9-9-9h7--|
A--x5x5x5x5x5x5x5x5-xx7xx7x-----------9-|
E-------------------xx5xx5x-------------|

e-----------------------|
b-----------------------|
g-----------------------|
d--5-5----7-7-7-7-7-7-7-|
a--5---5--7-7-7-7-7-7-7-|
E--3------5-5-5-5-5-5-5-|


coro (x2):

e-------------------------------------|
b-------------------------------------|
g--7---7---9---9---11---11---9---9----|
d----7---7---7---7----7----7---7---7--|  (x2)
a-------------------------------------|
E-------------------------------------|

e----------------------------------------------|
B----------------------------------------------|
G------------7---7---9---9---11---11---9---9---|
D--5-5--5-5----7---7---7---7----7----7---7---7-|
A--5-5--5-5------------------------------------|
E--3-3--3-3------------------------------------|


puente:

e------------------------|
b------------------------|
g------7-7-12-12-9-7-7s9-|
d--9-9-7-7-12-12-9-7-7s9-|
a--9-9-5-5-10-10-7-5-5s7-|
E--7-7-------------------|


estrofa:

coro:

solo:

e--------------------------------------------|
B--------------------------------------------|
G--9v-9h7-x----------------------------------|
D-----------9v-7-9-7-9-7---------------------|
A------------------------9-7-9-7-9-7-9-7-----|
E----------------------------------------10v-|

e----------------------------------------------7----|
B--------------------------------7---7-10-7-10---10-|
G--------------------7---7-9-7-9---9----------------|
D--------7---7-9-7-9---9----------------------------|
A--9-7-9---9----------------------------------------|
E---------------------------------------------------|

e----------------------|
B--7-s10v-10-12--------|
G---------------9v-7-9-|
D----------------------|
A----------------------|
E----------------------|

e-10-7----      -12-10----|
B------10-      -------12-|
G--------- (x8) ----------| (x8)
D---------      ----------|
A---------      ----------|
E---------      ----------|

e------------------------------------------------|
B------------------------------------------------|
G---s7v-6----s7v-6-7s9s7-6-7v-6------------------| (x3)
D---------7v--------------------7v-7-7s5-4-5-4-2-|
A------------------------------------------------|
E------------------------------------------------|





Calificar esta versión:
Aviso: Este fichero es trabajo propio de su transcriptor y representa su interpretación personal de la canción. El material contenido en esta página es para exclusivo uso privado, por lo que se prohibe su reproducción o retransmisión, así como su uso para fines comerciales.
Más versiones de Fallido Intento, Don Tetto
Fallido Intento
acordes
Fallido Intento
tablatura
Fallido Intento
bajo
Fallido Intento (ver 2)
bajo
Descubre más canciones de Don Tetto