Fallido Intento, Don Tetto (bajo) (ver 2)

Autor: Anónimo | 28557 visualizaciones



intro

G|----------------------------------------|
D|----------------------------------------|
A|-2-2------5-5--3-3-3---2-2------5-------| X2
E|-----3-3-------------------3-3----------|
I estrofa
G|-----------------------------------------------|
D|-----------------------------------------------|
A|--2-2-2-2-2-2-2---------------5-5-5-5-5-5-5-5--|
E|------------------3-3-3-3-3-3------------------|
                                                   x2
G|----------------------|
D|----------------------|
A|----------------------|
E|---x-x-5-x-x-5-3-3-3--|

G|----------------------------------------|
D|----------------------------------------|
A|----------------------------------------|
E|--5-5-5-5-5-5-5-5---3-3-3-3-3-3-3-------|
coro
G|--------------------------------------------------------------|
D|--------------------------------------------------------------|
A|-5-5-5-5-5--------------------------555-555-------------------|
E|-----------5-5-5-5--3-3-3-3-5-5-5-5---------5-5-5-5-3-3-5-5---|

G|--------------------|
D|--------------------|
A|--------------------|   coro x2
E|--5-5-5-5-3-3-5-5---|

intro x2

II ESTROFA
G|-----5-2-5---555555-2-----------------------|
D|-----------4----------4---------------------|
A|--2---------------------6-4-6---666-44-6----|
E|------------------------------6-------------|

G|----------------------------------|
D|----------------------------------|
A|-------------------------55555----|
E|--5-5-5-5-5-5-5--xx3-xx3----------|

G|------------------------------------------------|
D|------------------------------------------------|
A|--2-2-2-2-2-2-2---------------5-5-5-5-5-5-5-5---|
E|------------------3-3-3-3-3-3-------------------|

G|-------------------------|
D|-------------------------|
A|-------------------------|
E|------x-x-5-x-x-5-3-3-3--|

G|----------------------------------------|
D|----------------------------------------|
A|----------------------------------------|
E|--5-5-5-5-5-5-5-5---3-3-3-3-3-3-3-------|

coro x2

la parte del punteo es lo mismo q la primera estrofa solo q hay
q estar pendiente de la velocidad
que esta lleva al igual q en la parte suavecita

...y ya no se quien soy y ya no se quien soy...

G|-----------------------------------------------------------|
D|-----------------------------------------------------------|
A|-----------------------------------------------------------|
E|--3-3-3-3-3-3-3-3-5-5-5-5-5-5-5-5-5-3-3-3-3-3-3-3-3-555555-|

coro
viene la parte del coro q es lo mismo tengan en cuentan que
hay es q cambiar el ritmo segun escuchen uds la cancion

bueno esta cancion va dedicada para esa niña q
alguna vez le cante esta cancion
jajajajaja para tania que ya no me interesa

mm cualquier duda o inquietud de la cancion aqui les dejo mi correo
rafcruadvhunter@hotmail.com





Calificar esta versión:
Aviso: Este fichero es trabajo propio de su transcriptor y representa su interpretación personal de la canción. El material contenido en esta página es para exclusivo uso privado, por lo que se prohibe su reproducción o retransmisión, así como su uso para fines comerciales.
Más versiones de Fallido Intento, Don Tetto
Fallido Intento
acordes
Fallido Intento
tablatura
Fallido Intento
bajo
Fallido Intento (ver 2)
bajo
Descubre más canciones de Don Tetto