Fallido Intento, Don Tetto (bajo)

Autor: Anónimo | 17865 visualizaciones



Hola gente....
esta cancion es para todos aquellos fans de Don Tetto
espero ke les guste este fallido intento en bass para todos....


Circulo Dominante:
B-G-D-A

Intro:

Power chords de guitarra en B-A-D-G x2


|--------------------------------------------------|
|--------------------------------------------------|
|-----------55------------5------------------------|
|-----77-55----333--77-55--------------------------|x2

dime que se siente....
En esta parte el bajo no interpreta la nota D

|--------------------------------------------------|
|--------------------------------------------------|
|--2222222222------xxxxx---------------------------|
|-------------3333-------555555--------------------|

|--------------------------------------------------|
|--------------------------------------------------|
|--2222222222------xxxxx---------------------------|
|-------------3333-------555555--------------------|

Y ya no se.....

|--------------------------------------------------|
|--------------------------------------------------|
|--------------------------------------------------|
|---33333333--55555555-----------------------------|


Coro:

|--------------------------------------------------|
|--------------------------------------------------|
|--55555555----------2---2-------------------------|
|-----------55555555---3---3---3333--555555--------|x2


O dime que te crees......
solo de bajo

|--------------------------------------------------|
|---99p7---99p7----55p4---55p4---------------------|
|-------9-------9-------5------5---xxxxx-----------|
|----------------------------------------555555----|

Saber que no es suficiente.....

|--------------------------------------------------|
|--------------------------------------------------|
|--2222222222------xxxxx---------------------------|
|-------------3333-------555555--------------------|


Y ya no se.....

|--------------------------------------------------|
|--------------------------------------------------|
|--------------------------------------------------|
|---33333333--55555555-----------------------------|

Coro:

|--------------------------------------------------|
|--------------------------------------------------|
|--55555555----------2---2-------------------------|
|-----------55555555---3---3---3333--555555--------|x2


(Solo de guitarra) bajo:B-G-D-A


Dime que sientes cuando estas.. bajo:B-G-D-A

Y ya no se.....

|--------------------------------------------------|
|--------------------------------------------------|
|--------------------------------------------------|
|---33333333--55555555-----------------------------|x2


Coro: fin..

esta cancion es para todos gozenla.....
y un saludo muy especial para todos los amantes del
rock criollo Colombia





Calificar esta versión:
Aviso: Este fichero es trabajo propio de su transcriptor y representa su interpretación personal de la canción. El material contenido en esta página es para exclusivo uso privado, por lo que se prohibe su reproducción o retransmisión, así como su uso para fines comerciales.
Más versiones de Fallido Intento, Don Tetto
Fallido Intento
acordes
Fallido Intento
tablatura
Fallido Intento
bajo
Fallido Intento (ver 2)
bajo
Descubre más canciones de Don Tetto