Sin Medir Distancia, Diomedes Diaz (tablatura) (ver 2)

Autor: Anónimo | 22935 visualizaciones

INTRODUCCION
E|----8----6---6---4---4---3---4---
B|-------------------------------
G|---8-----7---7---5---5---3---5-
D|------------------------------
A|-------------------------------
E|--------------------------------
/

E|--------------------------------
B|---6---8---9---11--9/11----8----
G|--------------------------------
D|---6---8---10--12--10/12---8----
A|--------------------------------
E|--------------------------------
/

E|------------------------------
B|---9----8--8---6---6---4---6--
G|---------------------------
D|---10---8--8---6---6---5---6-
A|-------------------------------
E|--------------------------------
/

E|-------------------------------
B|---3---4---6---8---6/8----4----
G|-------------------------------
D|---3---5---6---8---6/8----5---
A|------------------------------
E|------------------------------

  MIb                                        SIb
La herida que siempre llevo en el alma no cicatriza
  FAm           SIb                       MIb
inevitable me marca la pena que es infinita
    MIb                                        SIb
quisiera volar muy lejos muy lejos sin rumbo fijo
    FAm               SIb                        MIb
buscar un lugar del mundo sin odio vivir tranquilo

RIFF 1
E|-0---7-7---7-7---5-5---3---2---5---3--
B|--------------------------------------
G|-----8-8---8-8---5-5---3---2---5---3--
D|--------------------------------------
A|--------------------------------------
E|--------------------------------------

RIFF 2
E|-0---2--3-2-------------
B|-------------3----------
G|------------------------

   MIb             FAm          SIb7                  MIb
eliminar las tristezas, las mentiras y las traiciones
      DOm                 FAm               SIb7
no importa que nunca encuentre el corazón
              MIb
lo que ha buscado de verdad

MIb7               LAb                   SIb
   no importa el tiempo que ya es muy corto
               MIb
en las ansias largas de vivir

DOm              FAm
   cualquier minuto de placer
SIb7          MIb
   será sentido en realidad
DOm            FAm                SIb7
  si lleno el alma, si lleno el alma
          MIb
de eternidad (bis)



MIb7     LAb   SIb                     MIb
Es muy triste    recordar momentos felices
  DOm     FAm            SIb7        MIb
de^un cariño que sangró   mi corazón
  MIb7   LAb             SIb7            MIb
llego la^hora de partir   sin medir distancias
DOm    FAm             SIb7           MIb
y ni sombras quedarán   de aquel amor (bis).............
Calificar esta versión:
Aviso: Este fichero es trabajo propio de su transcriptor y representa su interpretación personal de la canción. El material contenido en esta página es para exclusivo uso privado, por lo que se prohibe su reproducción o retransmisión, así como su uso para fines comerciales.
Más versiones de Sin Medir Distancia, Diomedes Diaz
Sin Medir Distancia
acordes
Sin Medir Distancia
tablatura
Sin Medir Distancia (ver 2)
tablatura
Descubre más canciones de Diomedes Diaz