Sin Medir Distancia, Diomedes Diaz (tablatura)

Autor: Anónimo | 16047 visualizaciones

este es el verdadero punteo d la cancion
E|---8----6---6---4---4---3---4---
B|-------------------------------
G|-----------------------
D|------------------------------
A|-------------------------------
E|--------------------------------
/

E|-------3---4---6---4---3---
B|---6----------------------
G|-------------------
D|------------------------
A|--------------------------
E|---------------------------
/

E|---4----3---3-------------------
B|----------------6---6---4---6--
G|---------------------------
D|--------------------------
A|-------------------------------
E|--------------------------------
/

E|---------------3------------
B|---3---4---6-------6----4----
G|----------------------------
D|---------------------------
A|---------------------------
E|----------------------------
/
Calificar esta versión:
Aviso: Este fichero es trabajo propio de su transcriptor y representa su interpretación personal de la canción. El material contenido en esta página es para exclusivo uso privado, por lo que se prohibe su reproducción o retransmisión, así como su uso para fines comerciales.
Más versiones de Sin Medir Distancia, Diomedes Diaz
Sin Medir Distancia
acordes
Sin Medir Distancia
tablatura
Sin Medir Distancia (ver 2)
tablatura
Descubre más canciones de Diomedes Diaz